Song name
# A B C D E F G H I J K L M N O P Q R S T U V W X Y Z

Status Quo - Nanana tab

Help us improve GuitareTab! Take a short survey!
Na Na Na
Status Quo
Dog Of Two Head 1971
Greg Harper   gregharper2007@hotmail.co.uk

This is an easier way of playing the acoustic intro.
E|-------------------------------------------------------------------------|
B|-----10----10----10----10----10----10----10----10-----8-----8-----8-----8|
G|---7-----7-----7-----7-----7-----7-----7-----7------7-----7-----7-----7--|
D|-7-----7-----7-----7-----7-----7-----7-----7------7-----7-----7-----7----|
A|-------------------------------------------------------------------------|
E|-------------------------------------------------------------------------|

E|-------------------------------------------------------------------------|
B|-----8-----8-----8-----8-----5-----5-----5-----5-----6-----6-----6-----6-|
G|---7-----7-----7-----7-----7-----7-----7-----7-----7-----7-----7-----7---|
D|-7-----7-----7-----7-----7-----7-----7-----7-----5-----5-----5-----5-----|
A|-------------------------------------------------------------------------|
E|-------------------------------------------------------------------------|

E|---------------------------------------------------2-2-2---2-2-2---2-2-2-|
B|-----6-----6-----6-----6-----6-----6-----6-----6---3-3-3---3-3-3---3-3-3-|
G|---7-----7-----7-----7-----7-----7-----7-----7-----2-2-2---2-2-2---2-2-2-|
D|-0-----0-----0-----0-----0-----0-----0-----0-----0-0-0-0-0-0-0-0-0-0-0-0-|
A|-------------------------------------------------0-------0-------0-------|
E|-------------------------------------------------------------------------|

E|-5-5-5-5-------2-|
B|-3-3-3-3-------3-|
G|-2-2-2-2-------2-|
D|-0-0-0-0-------0-|
A|---------0-2-4---|
E|-----------------|
Related for Nanana tab