Song name
# A B C D E F G H I J K L M N O P Q R S T U V W X Y Z

Status Quo - Magic tab

Magic
Status Quo
Aint' Complaining 1988
Greg Harper   quorockergreg@hotmail.co.uk


Intro/Main Riff (Keyboard)

E|---------------------------------------------------------------------|
B|-8-8-6-5--6-6-5----8-8-6-5--------8-8-6-5--6-6-5----8-8-6-5----------|
G|----------------7----------7-5-5-----------------7----------7-5-5----|
D|------------------------------------------------------------------10-|
A|------------------------------------------------------------------10-|
E|------------------------------------------------------------------8--|


Solo (Acoustic w/Reverb)

E|------------------------------------------------|
B|------------------------------------------------|
G|--------------------------------------7---------|
D|\-7-7-7--7-9-10-10-7-7-7---7-7-7-9-10---10-9----|
A|---------------------------------------------10-|
E|------------------------------------------------|


etc etc
Tap to rate this tab
 
# A B C D E F G H I J K L M N O P Q R S T U V W X Y Z