Song name
# A B C D E F G H I J K L M N O P Q R S T U V W X Y Z

Stavesacre - Keep Waiting tab

Stavesacre- Keep Waiting
Drop-D

Intro
E|--------------|
B|---2-3---3h2--|
G|--2-2-2-2---2-|
D|-0------------|
A|--------------| 8x (play 4 times then the other guitars come in playing
D|--------------|         Riff 1)

Riff 1
E|-------------------------------------------------|
B|-------------------------------------------------|
G|-------------------------------------------------|
D|-0-0-0-0-4-0-5-5-5-5-4-4-0-0-0-0-4-0-9-9-9-9-7-7-|
A|-0-0-0-0-4-0-5-5-5-5-4-4-0-0-0-0-4-0-9-9-9-9-7-7-|
D|-0-0-0-0-4-0-5-5-5-5-4-4-0-0-0-0-4-0-9-9-9-9-7-7-|

E|---------------------------------------------|
B|---------------------------------------------|
G|---------------------------------------------|
D|-0-0-0-0-4-0-5-5-5-5-4-4/9-9-9-0-7-7-7-7-7-7-|
A|-0-0-0-0-4-0-5-5-5-5-4-4/9-9-9-0-7-7-7-7-7-7-| 2x (Look Below)
D|-0-0-0-0-4-0-5-5-5-5-4-4/9-9-9-0-7-7-7-7-7-7-|

Guitar 2 plays this riff the 2nd time. guitar 1 keeps playing Riff 1.
E|---------------------------------------------------------------------|
B|---------------------------------------------------------------------|
G|-6/7-7-7-7-7-7-7-7-7/9-9-9-9\7-7-7-7-7-7-7-7-7-7\6-6-6-6/7-7-7-7-7-7-|
D|-x/x-x-x-x-x-x-x-x-x/x-x-x-x\x-x-x-x-x-x-x-x-x-x\x-x-x-x/x-x-x-x-x-x-|
A|-4/5-5-5-5-5-5-5-5-5/7-7-7-7\5-5-5-5-5-5-5-5-5-5\4-4-4-4/5-5-5-5-5-5-|
D|---------------------------------------------------------------------|

E|------------------------------------------------------|
B|------------------------------------------------------|
G|-7-7-7-7/9-9-9-9/11-11-11-11-11-11-11-6-6-6-6-6-6-6-6-|
D|-x-x-x-x-x-x-x-x-x--x--x--x--x--x--x--x-x-x-x-x-x-x-x-|
A|-5-5-5-5/7-7-7-7/9--9--9--9--9--9--9--4-4-4-4-4-4-4-4-|
D|------------------------------------------------------|

Riff 2
E|-------------------------------------------------------------------------|
B|-------------------------------------------------------------------------|
G|-------------------------------------------------------------------------|
D|-11-11-x-x-11-11-x-x-5----x-x-11-11-x-x-11-11-x-x-5---5/9-9-9-9\7-7---0~-|
A|-9--9--x-x-9--9--x-x-5----x-x-9--9--x-x-9--9--x-x-5---5/9-9-9-9\7-7---0~-|
D|-9--9--x-x-9--9--x-x-5----x-x-9--9--x-x-9--9--x-x-5---5/9-9-9-9\7-7---0~-|

then the intro is played 2x then,
Riff 1 3x(instead of the 2ndtime guitar 1 plays the diff. riff the 3rd time)
Riff 2

Riff 3
E|-----------------------------------------------------------------|
B|-----------------------------------------------------------------|
G|-----------------------------------------------------------------|
D|-0-0-0-0-0-0-0-0-5-5-5-5-5-5-5-5-0-0-0-0-0-0-0-0-5-5-5-5-5-5-5-5-|
A|-0-0-0-0-0-0-0-0-5-5-5-5-5-5-5-5-0-0-0-0-0-0-0-0-5-5-5-5-5-5-5-5-|
D|-0-0-0-0-0-0-0-0-5-5-5-5-5-5-5-5-0-0-0-0-0-0-0-0-5-5-5-5-5-5-5-5-|

E|-----------------------|
B|-----------------------|
G|-----------------------|
D|-9-9-9-0-7-7-7-7-7-7-7-|
A|-9-9-9-0-7-7-7-7-7-7-7-|
D|-9-9-9-0-7-7-7-7-7-7-7-|

Then play Riff 2
Immediatly after, go to the intro, while the other guitar plays this

Riff 4
E|---------------------------------------|
B|---------------------------------------|
G|---------------------------------------|
D|-4-5~--------------------------7-0~----|
A|-4-5~--------------------------7-0~----| i think 4x
D|-4-5~--------------------------7-0~----|

Then Riff 3 4x times
Riff 2
Finally the intro 4x

Great song, keep rockin hard for God!!!
Tap to rate this tab
# A B C D E F G H I J K L M N O P Q R S T U V W X Y Z