Song name
# A B C D E F G H I J K L M N O P Q R S T U V W X Y Z

Steam Powered Giraffe - Honey Bee tab

-------------------------------------------------------------------------------
                             HONEYBEE - Steam Powered Giraffe
-------------------------------------------------------------------------------

Tabbed by:  FS
Email: i.are.skittles@gmail.com

Tuning:  Standard - Capo 1

(This section is played 3 times.  On the last repeat, the last 3 notes are not played.)

e|----------3---3------------------------------------------------|
B|--------1---1---1-------0---0---------1---1----------1---1-----|
G|------0---------------0---0---0-----0---0---0------0---0---0---|
D|---2----------------2-------------2--------------2-------------|
A|-3------------------------------0--------------3---------------|
E|-----------------0---------------------------------------------|
Tap to rate this tab
# A B C D E F G H I J K L M N O P Q R S T U V W X Y Z