Song name
# A B C D E F G H I J K L M N O P Q R S T U V W X Y Z

Steel Pillow - Meltdown tab

------------------------------------------------------------
	Meltdown - Steel Pillow
------------------------------------------------------------

Written and Tabbed by: Jarrad Freadrich
Preformed by: Steel Pillow

e|----------------------------------------------------------
B|----------------------------------------------------------
G|-----55-02---------55-02----------------------------------
D|-2---55-02-----2---55-02----------------------------------
A|-2---33-00-----2---33-00---------------------------------
E|-0-------------0------------------------------------------
Tap to rate this tab
# A B C D E F G H I J K L M N O P Q R S T U V W X Y Z