Song name
# A B C D E F G H I J K L M N O P Q R S T U V W X Y Z

Steelheart - Everybody Loves Eileen tab

Steelheart - Everybody Loves Eileen

Tuning: Eb/ half step down


[Intro/Verse]

Guitar 1
E---------------------------------------------------|
B---------------------------------------------------|
G---------------------------------------------------|
D--11-------11-------11----12-------12-------12-----|
A--12-12-12-12-12-12-12-12-12-12-12-12-12-12-12-12--|
E---------------------------------------------------|

E---------------------------------------------------|
B---------------------------------------------------|
G--11-------11-------11----11-------11-------11-----|
D--12-12-12-12-12-12-12-12-12-12-12-12-12-12-12-12--|
A---------------------------------------------------|
E---------------------------------------------------|

Guitar 2
E------------------------|
B------------------------|
G----------7-------7-7---|
D--7-------7--5-7--7-7---|
A--7-------5--5-7--5-5---|
E--5----------3-5--------| x2

then:
E-------------------------------------------------------------------|
B-------------------------------------------------------------------|
G----------------------------------7-----7-----7---7-----7-----7----|
D--7-----7-----7---7-----7-----7---7-----7-----7---7-----7-----7----|
A--7-----7-----7---7-----7-----7---5-5-5-5-5-5-5-5-5-5-5-5-5-5-5-5--|
E--5-5-5-5-5-5-5-5-5-5-5-5-5-5-5-5----------------------------------|


[Chorus]

E--------------------|
B--------------------|
G-----------7---7----|
D---7---5---7---7----|
A---7---5---5---5----|
E---5---3------------| x4


[Bridge]

E-----------------------------------------------------|
B-----------------------------------------------------|
G--7----7-----7-----7---7-----7-----7-----7-----7-7---|
D--7----7-----7-----7---7-----7-----7-----7-----7-7---|
A--5----5-5-5-5-5-5-5---5-5-5-5-5-5-5-5-5-5-5-5-5-5---|
E-----------------------------------------------------|

E----------0-------|
B----------0-------|
G---2----------7---|
D---2----2-----7---|
A---0----2-----5---|
E--------0---------| x4


[Solo Rythm]

E----------0-------|
B----------0-------|
G---2----------7---|
D---2----2-----7---|
A---0----2-----5---|
E--------0---------| x4

then:
E------------------------------------|
B------------------------------------|
G--7---------------------------------|
D--7-7-7-7-7-7-7-7-7-7-7-7-7-7-7-7---|
A--5-5-5-5-5-5-5-5-5-5-5-5-5-5-5-5---|
E------------------------------------|
Tap to rate this tab
# A B C D E F G H I J K L M N O P Q R S T U V W X Y Z