Guitaretab - guitar tabs
Song name
# A B C D E F G H I J K L M N O P Q R S T U V W X Y Z

Steely Dan - Do It Again tab

#----------------------------------PLEASE NOTE---------------------------------#
#This file is the author's own work and represents their interpretation of the #
#song. You may only use this file for private study, scholarship, or research. #
Message-id: <>
X-Mailer: ELM [version 2.3 PL11]
Content-transfer-encoding: 7BIT

Do It Again (Steely Dan)

The chords I use are listed below.
This is my first upload, so people familiar with the archive, let me
know if it's all clear.
The chord diagrams use numbers that correspond to the frets
in case somebody hadn't noticed...:-)
All Bm7 are type (I) unless noted.  Enjoy.

"All the time you know she's smilin', you'll be on your knees tomorrow"

We go back all the time.
Ciao,   Fio.


e|0----|-----|-----|           |x----|-----|-----|
b|-----|-----|--3--|           |-----|--5--|-----|
g|0----|-----|-----|           |-----|--5--|-----|
d|0----|-----|-----|           |-----|--5--|-----|
a|-----|--2--|-----|           |x----|-----|-----|
e|0----|-----|-----|           |-----|--5--|-----|
        Em                                                        Am7

[ Tab from: ]
|x----|-----|-----|           |--2--|-----|-----|
|-----|--7--|-----|           |-----|--3--|-----|
|-----|--7--|-----|           |--2--|-----|-----|
|-----|--7--|-----|           |-----|-----|--4--|
|x----|-----|-----|           |--2--|-----|-----|
|-----|--7--|-----|           |--2--|-----|-----|
                Bm7 (I)                                          Bm7 (II)


In the mornin' you go gunnin' for the man who stole your water
And you fire till he's done in but they catch you at the border
And the mourners are all singin' as they drag you by your feet
But the hangman isn't hangin' so they put you on the street

           Am7    Bm7  Bm/C   Bm7   Em
You go back, Jack, do it again, wheels turinin' 'round and 'round
           Am7    Bm7  Bm/C   Bm7   Em |  |   Bm7 (II)
You go back, Jack, do it again,

Well you know she's no high climber, then you find your only friend
In a room with your two timer, but you're sure you're near the end
Then you love a little wild one, and she brings you only sorrow
All the time you know she's smilin', you'll be on your knees tomorrow


Guitar Solo    |
               | ->      Same chord pattern as verses/chorus
Keyboard Solo  |

Now you swear and kick and beg us that you're not a gamblin' man;
Then you find you're back in Vegas with a handle in your hand
Your black cards can bring you money so you hide them when you're able
In the land of milk and honey you must put them on the table

Related for Do It Again tab