Song name
# A B C D E F G H I J K L M N O P Q R S T U V W X Y Z

Steely Dan - Josie tab

-------------------------------------------------------------------------------
			     Josie - Steely Dan
-------------------------------------------------------------------------------
Tabbed by: someone123
Email: idkmyemail@madeup.com

Tuning:

Intro (timing might be a little off, so do it yourself)

e|---------------------------------------------------------------------3--|
B|-------3--2-------------------3--2-----------------------------------5--|
G|----------------3\4~~----------------3---------------------------4---5--|
D|---2------------1\2~~-----2----------1---4~\7--------7--6--5--4------3--|
A|-----------------------------------------2~\5--5--7------------------3--|
E|------------------------------------------------------------------------|

e|--------2---3-------------------------------------------------------------------|
B|---10---3---4-------------------------------------------------------------------|
G|---9----4---5-------------------------------------------------------------------|
D|---8----2---3-------------------------------------------------------------------|
A|---9----2---3-------------------------------------------------------------------|
E|--------------------------------------------------------------------------------|

Verses

e|-------7--7---7---7---|
B|-------8--8---8---8---|  THATS IT FOR THE FIRST PART
G|-------7--7---7---7---|
D|-------9--9-x-9---9---|
A|--x-x--7------7-x-7---|
E|----------------------|

THEN IT GOES INTO A LITTLE CHORD LICK
e|--5----3---5--3---|
B|--7----3---7--5---|
G|--6----4---7--5---|
D|--7----5---5--3---|
A|--5----3----------|
E|------------------|

Then back into the first verse part

THEN THERE'S A SECOND CHORD LICK
e|--5--5----3--5--3--------7--7---7---7-----5------5--|
B|--5--5----3--7--5--------8--8---8---8-----7------9--|
G|--6--6----4--7--5--------7--7---7---7-----7------9--|
D|--5--5----5--5--3--------9--9-x-9---9-----5------7--|
A|--7--7----3---------x-x--7------7-x-7-----5------7--|
E|--5--5----------------------------------------------|


First tab thnx


| /  slide up
| \  slide down
| h  hammer-on
| p  pull-off
| ~  vibrato
| +  harmonic
| x  Mute note
===============================================================================
Tap to rate this tab
# A B C D E F G H I J K L M N O P Q R S T U V W X Y Z