Stef Lang - Diamonds tab

Tuning is standard except the "B" string.  TUNE 1/2 STEP UP TO "C"

Capo on Third.

Chord progression is chord 1-2-3-4.

***When Stef sings "...and I'm falling into the earth..." chord progression is 2-4-2-4***

Play this throughout the whole song besides the exception I ***Noted***

 Chord 1  Chord 2   Chord 3    Chord 4    Chord 1    Chord 2     Chord 3
e|-----------------------------------------------------------------------------|
C|----0----------0----------0----------0----------0----------0----------0------|
G|----0----------0----------0----------0----------0----------0----------0------|
D|-------0----------0----------0----------0----------0----------0---------0----|
A|-----------------------------------------------------------------------------|
E|-8----------1----------5----------3----------8----------1----------5---------|

    Chord 4
e|---------------------------------------------------------------------------|
C|----0----------------------------------------------------------------------|
G|----0----------------------------------------------------------------------|
D|-------0-------------------------------------------------------------------|
A|---------------------------------------------------------------------------|
E|-3-------------------------------------------------------------------------|
Tap to rate this tab
 
# A B C D E F G H I J K L M N O P Q R S T U V W X Y Z