Song name
# A B C D E F G H I J K L M N O P Q R S T U V W X Y Z

Stefan Raab - Maschendrahtzaun tab

Maschendrahtzaun
----------------
(Stefan Raab)

I don't know all chord names so I wrotedown something different, if you know the
real ones you can correct this one. I also don't know if all chords are exactlythe
right ones, but when I tabbed this it was the only Maschendrahtzauntab on the Internet
and it made very much fun toplay. Of courseyoun can send me correctinos if you want:
leerebirne@web.de (Benjamin Marschner)

Also visit my homepages: www.novembersfall.com (My Band)
                         www.myspace.com/novembersfall1
                         www.debil-tabs.de.vu
                         www.systemofadowntabs.de.vu


   E  C#7 F#6  A  A*   B   Bb  C#  F#  B
1:-0-|---|-2-|-5-|---|-7-|-6-|-4-|-2-|-2-|
2:-0-|-2-|-4-|-5-|-5-|-7-|-6-|-6-|-2-|-4-|
3:-1-|-4-|-3-|-6-|-6-|-8-|-7-|-6-|-3-|-4-|
4:-2-|-3-|-2-|-7-|-8-|-9-|-8-|-6-|-4-|-4-|
5:-2-|-4-|-4-|-7-|-7-|-9-|-8-|-4-|-4-|-2-|
6:-0-|---|-2-|-5-|-6-|-7-|-6-|---|-2-|---|


r1
1:---------------------------------|
2:---------------------------------|
3:---------------------------------|
4:-2---------1---------------------|
5:---x-2--4------------------------|
6:---------------------------------|

r2
1:-9--9---------------------------|
2:-9--9---------------------------|
3:-9--9---------------------------|
4:-9--9---------------------------|
5:--------------------------------|
6:--------------------------------|

r3
1:--------------------------------------|
2:--------------------------------------|
3:--------------------------------------|
4:--------------------------------------|
5:--------------------------------------|
6:--0--0-2b3r2-0------------------------|

r4
1:--------------------------------------------|
2:-13-13-13-13-13-13-13-----------------------|
3:-12-12-12-12-12-12-12-----------------------|
4:-11-11-11-11-11-11-11-----------------------|
5:-12-12-12-12-12-12-12-----------------------|
6:--------------------------------------------|

r5
1:------8--7----------------------|
2:------7--6----------------------|
3:------8--7----------------------|
4:--------------------------------|
5:--------------------------------|
6:-0--0---------------------------|

Intzo:

E  r1

Verse 1:
      E                   C#7
I'm a lonesome rider, i'm the real choice of guy
            F#6                   r2          B   Bb
I tell your living name easy, but every day I try
     A              A*            E      C#
I've seen a million praises, baby I get around
       F#          B          r3
With a six pack of beer and a Maschendrahtzaun

Verse 2:
      E                         C#7
I'm a hard-working-man, I don't need much in live
            F#6                   r2          B   Bb
I got my horse, I got my boots, a hat and a knive
A            A*       E         C#
All I really need can surely be found
       F#                 B             r3
I need the girls I need a whiskey and a Maschendrahtzaun

Chorus:


A                               A*
Maschendrahtzaun in the morning
E
Maschendrahtzaun late at night
A                               A*
Maschendrahtzaun in the evening
B                         r4
Maschendrahtzaun makes me feel allright
    Bb   A       A*       E       C#
And if I ever be King and I get a crown
         F#        B       r3
it would surely be made of Maschendrahtzaun
Tap to rate this tab
# A B C D E F G H I J K L M N O P Q R S T U V W X Y Z