Song name
# A B C D E F G H I J K L M N O P Q R S T U V W X Y Z

Stephane Wrembel - Bistro Fada tab

Tuning: Standard

*This is my first tab, seeing as there are no tabs of this song available online I 
decided to colaborate for once.
This is just the intro and the first phrase of the lead, the tempo (or the lack of) is 
supost to be a 3/4 (I think).

Corrections are welcome! Please help transcribe the rest of the tab, thank you.

e|-----------------------------------------|
B|-----------------------------------------|
G|--0-0---4-4---0-0------------------------|
D|--2-2---2-2---1-1----------------Repeat--|
A|--2-2---2-2---2-2-2h3p2-0----------------|
E|0-0-0-3-3-3-2-2-2---------3-2------------|

e|-----------------------------------------------0--------------6-7-8-7-6-7-10-8---|
B|-------------------------------8-4-7-6-5-----4---7-8-10p8-7-8------------------7-|
G|------------0h2p0--0-3-4-5-4-5-----------4-6-------------------------------------|
D|----1-2-4-5------4---------------------------------------------------------------|
A|2-4------------------------------------------------------------------------------|
E|---------------------------------------------------------------------------------|

e|----------------------------------------------------------------7----------|
B|5-4-5-7-4-5-7------------------------------------------7-10-7-8------------|
G|--------------4s5--2-4-5-2-4-5---------------------5-8------------9--------|
D|-------------------------------2s4-------------4-7-------------------------|
A|-----------------------------------3-4-3-2-3-6-----------------------------|
E|---------------------------------------------------------------------------|

e|---------------------------------------------------------------------------|
B|---------------------------------------------------------------------------|
G|---------------------------------------------------------------------------|
D|---------------------------------------------------------------------------|
A|---------------------------------------------------------------------------|
E|---------------------------------------------------------------------------|

e|---------------------------------------------------------------------------|
B|---------------------------------------------------------------------------|
G|---------------------------------------------------------------------------|
D|---------------------------------------------------------------------------|
A|---------------------------------------------------------------------------|
E|---------------------------------------------------------------------------|

e|---------------------------------------------------------------------------|
B|---------------------------------------------------------------------------|
G|---------------------------------------------------------------------------|
D|---------------------------------------------------------------------------|
A|---------------------------------------------------------------------------|
E|---------------------------------------------------------------------------|

e|---------------------------------------------------------------------------|
B|---------------------------------------------------------------------------|
G|---------------------------------------------------------------------------|
D|---------------------------------------------------------------------------|
A|---------------------------------------------------------------------------|
E|---------------------------------------------------------------------------|

e|---------------------------------------------------------------------------|
B|---------------------------------------------------------------------------|
G|---------------------------------------------------------------------------|
D|---------------------------------------------------------------------------|
A|---------------------------------------------------------------------------|
E|---------------------------------------------------------------------------|


************************************

| /   slide up
| \   slide down
| h   hammer-on
| p   pull-off
| ~   vibrato
| +   harmonic
| x   Mute note
| b   Bend
| pb  Pre-bend
| br  Bend release
| pbr Pre-bend release
| brb Bend release bend

************************************
Tap to rate this tab
# A B C D E F G H I J K L M N O P Q R S T U V W X Y Z