Song name
# A B C D E F G H I J K L M N O P Q R S T U V W X Y Z

Stephen Lynch - Dd tab

I think i have this pretty much right.  maybe not the rythem.  if i dont have the rythem 
then just listen to the song to get the rythem

verse:          x3         how ever many times you play it
e|-0--0-0-3-3-3-|----------|
B|-0--0-0-0-0-0-|----------|
G|-1--1-1-0-0-0-|----------|
D|-2--2-2-0-0-0-|-2-xxxxxx-|
A|-2--2-2-2-2-2-|-2-xxxxxx-|
E|-0--0-0-3-3-3-|-0-xxxxxx-|

Prechorus:
e|-0--0-0-3-3-3--0--0-0-22222222-33333333----|
B|-0--0-0-0-0-0--0--0-0-33333333-00000000----|
G|-1--1-1-0-0-0--1--1-1-22222222-00000000----|
D|-2--2-2-0-0-0--2--2-2-00000000-00000000----|
A|-2--2-2-2-2-2--2--2-2----------22222222----|
E|-0--0-0-3-3-3--0--0-0----------33333333----|

Chorus:         x6
e|-0--0-0-3-3-3-|----------|
B|-0--0-0-0-0-0-|----------|
G|-1--1-1-0-0-0-|----------|
D|-2--2-2-0-0-0-|-2-xxxxxx-|
A|-2--2-2-2-2-2-|-2-xxxxxx-|
E|-0--0-0-3-3-3-|-0-xxxxxx-|

*always a long pause after the chorus
*Back to verse (do this twice)
*The chorus is the outro
Tap to rate this tab
 
# A B C D E F G H I J K L M N O P Q R S T U V W X Y Z