Song name
# A B C D E F G H I J K L M N O P Q R S T U V W X Y Z

Stephen Malkmus - Baby Cmon tab

-------------------------------------------------------------------------------
			   Stephen Malkmus - "Baby C'mon"
-------------------------------------------------------------------------------
Tabbed by: IndieRocke45
Email:IndieRcker45@msn.com

Tuning:standard

e|-----------------------------------------------------------|
B|-----------------------------------------------------------|
G|---------------------2h4-1h2--------2----------------------|
D|---1h2--4-2-4-2-(x8)----------4--44---4-2-1----------------| (x2)
A|-2------------------------------------------2--------------|
E|-----------------------------------------------------------|

e|-----------------------------------------|
B|-----------------------------------------|
G|--4-4-4-44-------------------------------|
D|--4-4-4-44--4-4-4-44--2-2-2-2-22--4-4-4--|
A|--2-2-2-22--4-4-4-44--2-2-2-2-22--4-4-4--|
E|------------2-2-2-22--------------2-2-4--|


| /  slide up
| \  slide down
| h  hammer-on
| p  pull-off
| ~  vibrato
| +  harmonic
| x  Mute note
=============================================================================
Tap to rate this tab
 
# A B C D E F G H I J K L M N O P Q R S T U V W X Y Z