Song name
# A B C D E F G H I J K L M N O P Q R S T U V W X Y Z

Stephin Merritt - One April Day tab

 -----------------------------------------------
| Artist: Stephin Merritt                      |
| Website: http://www.houseoftomorrow.com/     |
| Title: One April Day                         |
| Album: Pieces of April Soundtrack            |
| Words and Music by Stephin Merritt           |
| Tabbed by Dillon Falk                        |  
 -----------------------------------------------
transcripted by Dillon Falk     'this file is all my own work'

	Capo on 6th fret

Repeated throughout song:

e|-------0-2-0-3-2-0---------0-2-0-3-2-0--|
B|---2-3-------3-----3---2-3-------3-----3|
G|-2-----------0-------2-----------0------|   x2
D|----------------------------------------|
A|----------------------------------------|
E|----------------------------------------|


e|-------0-2-0-3-2-0-----3-3-2-0-0--------|
B|---2-3-------3-----3---3-3-3-2-2--3-----|
G|-2-----------0-------2-0-0-2-2-2-2------|   x2
D|----------------------0---0-------------|
A|----------------------------------------|
E|----------------------------------------|


e|-2-2-0-3--------3-3-2-0-----------------|
B|-3-3---3--------3-3-3-2--2-2------------|
G|-2-2---0--2-2---0-0-2-2-2---------------|
D|-0-0-----0-----0---0--------------------|
A|----------------------------------------|
E|----------------------------------------|


e|-------0-2-0-3-2-0---------0-2-0-3-2-0--|
B|---2-3-------3-----3---2-3-------3-----3|
G|-2-----------0-------2-----------0------|
D|----------------------------------------|
A|----------------------------------------|
E|----------------------------------------|


     D        G
One April day,

         D          G
we'll go miles away

    G            A            D    G
and I'll turn to you and I'll say:

G           A               D    G
I've always loved you in my way.

G           A              D
I'll always love you in my way.
Tap to rate this tab
 
# A B C D E F G H I J K L M N O P Q R S T U V W X Y Z