Song name
# A B C D E F G H I J K L M N O P Q R S T U V W X Y Z

Steppenwolf - Magic Carpet Ride tab

-------------------------------------------------------------------------------
			     SONG NAME - Band Name
-------------------------------------------------------------------------------
Tabbed by:
Email:

Tuning:Standard

i dont know exactly how to do the intro but here is the verse

verse
     D         C          X2             G
e|-2--2--------0-----------------------0----0-----------|
B|-3--3--------1-----------x-----------2----2-----------|
G|-2--2--------0-----------x-----------0----0-----------|
D|-0--0--------2-----------x-----------0----0-----------|
A|-0--0--------3-----------x-----------2----2-----------|
E|-------------------------------------3----3-----------|

OR you can do it like this but it doesn't sound as full

Verse
e|-------------------------------------|
B|-------------------------------------|
G|--7-----7------5---------------------|
D|--7-----7------5-----xx-----5----5---|     
A|--5-----5------3-----xx-----5----5---|      
E|---------------------xx-----3----3---|


Chorus
e|------------------------------------------------------|
B|------------------------------------------------------|
G|-----------------3----------------5-------------------|
D|-5---------------3----------------5----------3--------|
A|-5---------------1----------------3----------3--------|
E|-3-------------------------------------------5--------|

Pre Verse
e|----------------|
B|----------------|
D|-9-----7---7----|
A|-----9---9---9--|
E|----------------|

e|------------------------------------------------------|
B|------------------------------------------------------|
G|------------------------------------------------------|
D|------------------------------------------------------|
A|------------------------------------------------------|
E|------------------------------------------------------|

| /  slide up
| \  slide down
| h  hammer-on
| p  pull-off
| ~  vibrato
| +  harmonic
| x  Mute note
===============================================================================
Tap to rate this tab
# A B C D E F G H I J K L M N O P Q R S T U V W X Y Z