Song name
# A B C D E F G H I J K L M N O P Q R S T U V W X Y Z

Steps - Tragedy tab

intro

|------------------------------------------------------|
|------------------------------------------------------|
|-----6-7-----6-7-9-7-6-----7-6--------------------7-6-|
|---9-6-7---9-6-7-9-7-6-9-------9-7v--7-7-9-7-9v-9-----|
|---9-4-5---9-4-5-7-5-4-9------------------------------|
|---7-------7-----------7------------------------------|

Verse

|------------------------------------------------------|
|------------------------------------------------------|
|---7-7------------------------------------------------|
|---7-7-7-7--------------------------------------------|
|---5-5-7-7--------------------------------------------|
|-------5-5--------------------------------------------|

Play the verse as many times through as needed

Chorus

|------------------------------------------------------|
|-------------------------------7----------------------|
|-------------------7-7-6---------9-7-6-7--------------|
|---9-9-9--9-9-7-7--7-7-6-(x4)-------------------------|
|---9-9-9--9-9-7-7--5-5-4------------------------------|
|---7-7-7--7-7-5-5-------------------------------------|


Ill change it if i find anything different.
This is my first tab so be gentle people.
x



Tap to rate this tab
 
# A B C D E F G H I J K L M N O P Q R S T U V W X Y Z