Song name
# A B C D E F G H I J K L M N O P Q R S T U V W X Y Z

Stereo - Unexpected tab

Ey dudes,,

I am Daan, This tab is from the Dutch band Stereo,, The song is called Unexpected as you 
know,,

have fun with it,,

Legend

(u) = upstroke
(d) = downstroke
(b) = bend
(r) = bend back
(x) = mute
(/) = slide to note

Intro (1x)

(Played by Daan Koch)

e-------------------------------------------------------|
b-10-10-10-10-10-10-10-10-10----------------------------|
g-7--7--7--7--7--7--7--7--7-----11-11-11-11-11-11-11-11-|
d-9--9--9--9--9--9--9--9--9-----9--9--9--11-11-11-11-11-|
a-------------------------------10-10-10-12-12-12-12-12-|
D-------------------------------------------------------|

  d  d  d  d  d  d  d  d  u     d  d  d  d  d  d  d  d

Main riff

(Same as Intro played 5x)

Riff played by Jean Baptiste

(Played after 4 main riffs

Use up and downstrokes on and off, so up, down, up, down, etc.

e--------------------------------------------------------------------------|
b---------10-10---------10-10-----10---------------------------------------|
g-----7-7-----------7-7---------------------------11-11-------11-11-11-----|brbr
d-9-9-----------9-9-----------9-9-------------9-9----------11--------------|
a---------------------------------------10-10-----------12-----------------|
D--------------------------------------------------------------------------|

Pre-chorus

e-----------------|
b-----------------|
g-----------------|
d-2-7-9-----------|
a-2-5-7-----------|
D-2-5-7-----------|


Chorus (2x) use up and down picking on and off again

e-------------------------------------------------------------------|
b-------------------------------------------------------------------|
g-4-4-4-4-4-4-4-4-4-4-4-4-6-6-6-7-7-7-7-7-7-7-7-9-9-9-9-11-11-11-11-|
d-x-x-x-x-x-x-x-x-x-x-x-x-x-x-x-x-x-x-x-x-x-x-x-x-x-x-x-x--x--x--x--|
a-2-2-2-2-2-2-2-2-2-2-2-2-4-4-4-5-5-5-5-5-5-5-5-7-7-7-7-9--9--9--9--|
D-------------------------------------------------------------------|

e-------------------------------------------------------------------|
b-------------------------------------------------------------------|
g-------------------------------------------------------------------|
d-2-2-2-2-2-2-2-2-2-2-7-7-7-7-7-9-9-9-9-----------------------------|
a-2-2-2-2-2-2-2-2-2-2-5-5-5-5-5-7-7-7-7-----------------------------|
D-2-2-2-2-2-2-2-2-2-2-5-5-5-5-5-7-7-7-7-----------------------------|

Main riff (1x)

Riff played by Jean Baptiste (1x)

Main riff (2x)

Pre-Chorus

Chorus (1x)

Break

e-----------------------|
b-----------------------|
g-----------------------|
d---------7------9------|
a-4-(48x)-5-(9x)-7-(3x)-|
D-4-------5------7------|

Chorus (2x)

There is a little rif played when they played the chorus for the second time, but i dont
how they play that

Outro

e------------------------|
b-/12-/15-/19-22b-22b----|
g------------------------|
d------------------------|
a------------------------|
D------------------------|

At the chorus, the timing isn't exactly correct so you'll have to figure that out
because it's really iritating if you want to count how many times which chord is played. The
that i'm speaking English is because i dont know if their are guitar players from other 
that know Stereo and would like to play this song. If you have any questions you
send me an e-mail on daan_bassie1@hotmail.com, you can ofcourse join me on Msn,, laters

Have fun and keep on rocking:P

www.stereomusic.nl
Tap to rate this tab
# A B C D E F G H I J K L M N O P Q R S T U V W X Y Z