Guitaretab - guitar tabs
Song name
# A B C D E F G H I J K L M N O P Q R S T U V W X Y Z

Stereophonics - Hangman tab

Hangman Tab by Stereophonics
cool new demo from stereophonics, got it off the It Means Nothing EP on iTunes.
tabbed by soupdragon.

not much to it really, just 2 main parts to it.

part 1
E|----------------------------------------------------------------------|
B|----------------------------------------------------------------------|
G|--3-3bp0--------------------------------------------------------------|
D|--------3-5535-5(p0)--------------------------------------------------|
A|----------------------------------------------------------------------|
E|-3--------------------------------------------------------------------|
repeat as neccesary
[ Tab from: http://www.guitaretab.com/s/stereophonics/160254.html ]
at 1:40, play this riff instead:
E|----------------------------------------------------------------------|
B|----------------------------------------------------------------------|
G|--3-3bp0-------3b-----------------------------------------------------|
D|--------3-5535--------------------------------------------------------|
A|----------------------------------------------------------------------|
E|-3--------------------------------------------------------------------|

part 2
E|----------------------------------------------------------------------|
B|----------------------------------------------------------------------|
G|----------------------------------------------------------------------|
D|-888-888-888----------------------------------------------------------|
A|-888-888-888----------------------------------------------------------|
E|-666-666-666----------------------------------------------------------|

rate it, comment, wotever
check out my profile for more.
-soupdragon
Related for Hangman tab