Guitaretab - guitar tabs
Song name
# A B C D E F G H I J K L M N O P Q R S T U V W X Y Z

Stereophonics - Drowning tab

-------------------------------------------------------------------------------
			     Drowning - stereophonics
-------------------------------------------------------------------------------
Tabbed by:will int it
Email:billyjoelinn@hotmail.co.uk

Tuning:Eadgbe

verse

e|---0-0-0-0-0-0-0-0-0-0-0-0-0-0-0-0---------------------------------------|
B|---5-5-6-5-6-5-5-6-5-5-6-5-6-5-6-5---------------------------------------|
G|---7-7-7-7-7-7-7-7-7-7-7-7-7-7-7-7---------------------------------------|
D|---0-0-0-0-0-0-0-0-0-0-0-0-0-0-0-0---------------------------------------|
A|-------------------------------------------------------------------------|
E|-------------------------------------------------------------------------|

e|---0-0-0-0-0-0-0-0-0-0-0-0-0-0-0-0---------------------------------------|
B|---5-5-6-5-6-5-5-6-5-5-6-5-6-5-6-5---------------------------------------|
G|---5-5-5-5-5-5-5-5-5-5-5-5-5-5-5-5---------------------------------------|
D|---0-0-0-0-0-0-0-0-0-0-0-0-0-0-0-0---------------------------------------|
A|-------------------------------------------------------------------------|
E|-------------------------------------------------------------------------|

repeat both of these throughout the verse

then when the lyrics 'wana feel, wana feel like i did before' are reached a new progression is used
 
e|---0-0-0-0-0-0-0-0-0-0-0-0-0-0-0-0---------------------------------------|
B|---5-5-6-5-6-5-5-6-5-5-6-5-6-5-6-5---------------------------------------|
G|---4-4-4-4-4-4-4-4-4-4-4-4-4-4-4-4---------------------------------------|
D|---0-0-0-0-0-0-0-0-0-0-0-0-0-0-0-0---------------------------------------|
A|-------------------------------------------------------------------------|
E|-------------------------------------------------------------------------|
[ Tab from: http://www.guitaretab.com/s/stereophonics/160558.html ]
e|---0-0-0-0-0-0-0-0-0-0-0-0-0-0-0-0---------------------------------------|
B|---5-5-6-5-6-5-5-6-5-5-6-5-6-5-6-5---------------------------------------|
G|---3-3-3-3-3-3-3-3-3-3-3-3-3-3-3-3---------------------------------------|
D|---0-0-0-0-0-0-0-0-0-0-0-0-0-0-0-0---------------------------------------|
A|-------------------------------------------------------------------------|
E|-------------------------------------------------------------------------|

the rest of the song is a combonation of the two parts

e|---0-0-0-0-0-0-0-0-0-0-0-0-0-0-0-0---------------------------------------|
B|---5-5-6-5-6-5-5-6-5-5-6-5-6-5-6-5---------------------------------------|
G|---7-7-7-7-7-7-7-7-7-7-7-7-7-7-7-7---------------------------------------|
D|---0-0-0-0-0-0-0-0-0-0-0-0-0-0-0-0---------------------------------------|
A|-------------------------------------------------------------------------|
E|-------------------------------------------------------------------------|

e|---0-0-0-0-0-0-0-0-0-0-0-0-0-0-0-0---------------------------------------|
B|---5-5-6-5-6-5-5-6-5-5-6-5-6-5-6-5---------------------------------------|
G|---5-5-5-5-5-5-5-5-5-5-5-5-5-5-5-5---------------------------------------|
D|---0-0-0-0-0-0-0-0-0-0-0-0-0-0-0-0---------------------------------------|
A|-------------------------------------------------------------------------|
E|-------------------------------------------------------------------------|

e|---0-0-0-0-0-0-0-0-0-0-0-0-0-0-0-0---------------------------------------|
B|---5-5-6-5-6-5-5-6-5-5-6-5-6-5-6-5---------------------------------------|
G|---4-4-4-4-4-4-4-4-4-4-4-4-4-4-4-4---------------------------------------|
D|---0-0-0-0-0-0-0-0-0-0-0-0-0-0-0-0---------------------------------------|
A|-------------------------------------------------------------------------|
E|-------------------------------------------------------------------------|

e|---0-0-0-0-0-0-0-0-0-0-0-0-0-0-0-0---------------------------------------|
B|---5-5-6-5-6-5-5-6-5-5-6-5-6-5-6-5---------------------------------------|
G|---3-3-3-3-3-3-3-3-3-3-3-3-3-3-3-3---------------------------------------|
D|---0-0-0-0-0-0-0-0-0-0-0-0-0-0-0-0---------------------------------------|
A|-------------------------------------------------------------------------|
E|-------------------------------------------------------------------------|

this progression lasts the rest of the song

thats all i got so far
hope its ok
all the best
Related for Drowning tab