Song name
# A B C D E F G H I J K L M N O P Q R S T U V W X Y Z

Stereophonics - Not Up To You tab

here cool song tabd by EC

standard tunning


Not Up To You

INTRO

e-|---3-3--3-3-----------3-3--3-3------|
B-|---3-3--o-o-----------3-3--o-o------|
G-|---o-o--o-o-- x4 -----o-o--o-o x 4 -| x 2
D-|---x-x--x-x-----------o-o--o-o------|
A-|---3-3--3-3-----------x-x--x-x------|
E-|---x-x--x-x-----------x-x--x-x------|

VERSE 1

e-|---3-3--3-3-----------3-3--3-3------|
B-|---3-3--o-o-----------3-3--o-o------|
G-|---o-o--o-o-- x4 -----o-o--o-o x 4 -| x 4
D-|---x-x--x-x-----------o-o--o-o------|
A-|---3-3--3-3-----------x-x--x-x------|
E-|---x-x--x-x-----------x-x--x-x------|

CHORUS

G5 D/F# Em7

Not up to me, not up to you

G5 D/F# Em7

Not up to me, not up to you

VERSE 2 - Repeat VERSE 1

CHORUS - Repeat CHORUS


SOLO

e-|-------------3--|-------------5-|-------------3-|-------------5-|-o---|
B-|-------------1--|-------------3-|-------------1-|-------------3-|-1---|
G-|-------------o--|-------------2-|-------------o-|-------------2-|-o---|
D-|-------------2--|-------------4-|-------------2-|-------------4-|-2---|
A-|-o-2--3-o-o--o--|-o-2--3-o-2--2-|-o-2--3-o--o-o-|-o-2--3-o--2-2-|-3---|
E-|-------------x--|-------------x-|-------------x-|-------------x-|-----|

e-|-2--|
B-|-3--|
G-|-2--|hold...
D-|-o--|
A-|-o--|
E-|-x--|

VERSE 3

e-|---3-3--3-3-----------3-3--3-3------|
B-|---3-3--o-o-----------3-3--o-o------|
G-|---o-o--o-o-- x4 -----o-o--o-o x 4 -| x 2
D-|---x-x--x-x-----------o-o--o-o------|
A-|---3-3--3-3-----------x-x--x-x------|
E-|---x-x--x-x-----------x-x--x-x------|

e-|---3-3--3-3-----------3-3--o-o------|
B-|---3-3--o-o-----------3-3--o-o------|
G-|---o-o--o-o-- x4 -----o-o--o-o x 4 -|
D-|---x-x--x-x-----------2-2--2-2------|
A-|---3-3--3-3-----------2-2--2-2------|
E-|---x-x--x-x-----------o-o--o-o------|

e-|---3-3--o-o-----------3-3--o-o------|
B-|---3-3--1-1-----------3-3--o-o------|
G-|---o-o--o-o-- x4 -----o-o--o-o x 4 -|
D-|---2-2--2-2-----------2-2--2-2------|
A-|---o-o--o-0-----------3-3--3-3------|
E-|---x-x--x-x-----------x-x--x-x------|

CHORUS (2)

G5 D/F# Em7
Not up to me, not up to you
G5 D/F# Em7
Not up to me, not up to you
Em C
Ha, whatever
G5 D/F# Em
Not up to me, not up to you
Em G5
not up to anything we do
G5 D/F# Em C G5
Not up to me, not up to you______________Ha you
G5 D/F# Em
Ha you,__ ha you
C G5 D/F# Em
It's not up to me, it's not up to you

OUTRO - Repeat INTRO to fade
Tap to rate this tab
 
# A B C D E F G H I J K L M N O P Q R S T U V W X Y Z