Song name
# A B C D E F G H I J K L M N O P Q R S T U V W X Y Z

Sterile Ground - Dream tab

Help us improve GuitareTab! Take a short survey!
                       DREAM

Verse (chords)
e--5-------7---0-|--------------------|
b--6-------8---1-|--------------------|
g--5---2---7---0-|--------------------|
d--7---3---9---2-|-0--2--3--2---------|
a--5---3---7---3-|--------------3-----|
e------1---------|--------------------|

Prechorus
e----------------|
b----------------|
g--9-10-12-10----|
d-10-10-10-10----|
a-10-10-10-10----|
e--8--8--8--8----|

Chorus
e-------------|
b-------------|
g--6----------|
d--6---6---4--|
a--4---6---4--|
e------4---2--|

Bridge
e-------------------------------|
b-------------------------------|
g---6----8---11---10---11-------|
d---6----8---11---10---11-------|
a---4----6----9----8----9-------|
e-------------------------------|
Related for Dream tab