Guitaretab - guitar tabs
Song name
# A B C D E F G H I J K L M N O P Q R S T U V W X Y Z

Steve Boller - Give Me A Sign tab

"Give Me a Sign"
Copyright 2006 Steve Boller
www.steveboller.com

/=slide p=pulloff  h=hammeron

Capo 1st Fret (Chord names are relative to capo)

Main Riff:

(Start with palm muting. If playing with two guitars, 2nd guitar continues palm muting 
riff...listen to the song to get the rhythm)

D         Bm    D   Bm    D     Bm       G          A

e---------------------------------------------------------|
B------------------------------------2h3p0----------------|
G------2/4-------2/4---------2/4-2----------2-------------|
D-2/4-------2/4--------2/4-----------------------4--2-----|
A---------------------------------------------------------|
E---------------------------------------------------------|

 D    Bm   G     A

------------------------------------------------------|
------------------------------------------------------|
------------------------------------------------------|
--4-4-0-0-5-4-2h4p2-0---------------------------------|
------------------------------------------------------|
------------------------------------------------------|

        D            Bm
Well here you come,
        D            Bm
And there you go,
D               Bm
Round and round
G                 A
And round I know,
      D     Bm     G        A                D Bm G A
It's safer just to let you be today.
             D             Bm
Well my mind says yes,
            D          Bm
But my lips say no,
             D             Bm
And my heart says move
            G             A
But my legs won't go,
  D       Bm    G             A            D Bm G A
I lost another chance to say hello.
[ Tab from: http://www.guitaretab.com/s/steve-boller/76287.html ]
Instrumental break: suspended versions of D Bm G A
D xx0230 Bm x20230 G 320030 A x02230

Riff:

----------------------------------------------------------------------------|
----------------------------------------------------------------------------|
------2/4--2-4-2-4-6-7--------------7-------------7------------7-/9--7------|
-2/4---------------------9-----7h9-----9-----7h9----9----7h9----------------|
----------------------------10------------10------------10------------------|
----------------------------------------------------------------------------|

------------------------0---------------------------------|
------------------------2---------------------------------|
--7---------------------2---------------------------------|
----9----7h9-7-7-7~-----2---------------------------------|
------10----------------0---------------------------------|
------------------------x---------------------------------|

(Chorus)
      D          Bm   G           A
I'm nervous everytime you walk by,
       D         Bm        G       A
This wall between us is too strong,
      D      Bm    G          A
It's safer just to stand in silence,
D                Bm  G          A
Don't know if it's right or wrong,

Just give me a sign.

At a loss for words,
What role to play?
Need a noun and a verb
And a joke to say,
Maybe it's best if I just walk away.

What if I'm right?
How can I know?
I hate things out of my control,
It's a two way street and traffic's moving slow

(Bridge) D Bm D Bm D Bm G A D Bm G A D Bm G A  2x

(Chorus)

Oh, its safer just to let you be today


That should give you a basic idea...the second verse, and such continue the way the rest 
the song does