Song name
# A B C D E F G H I J K L M N O P Q R S T U V W X Y Z

Steve Earle - Devils Right Hand tab

-------------------------------------------------------------------------------
	Devil's Right Hand  - Steve Earl
-------------------------------------------------------------------------------
SONG: The Devil's Right Hand
BAND: Steve Earle
ALBUM: Copperhead Road (1988)
Tabbed by: Dacrow
Email: b_riz77@hotmail.com

Tuning: Tune G -string (3e string ) to F#

e|---------------------------------------------------------------------|
B|---------------------------------------------------------------------|
G|-----3-----2-------0------2------------------------------------------|
D|-----2-----2-------2------2------------------------------------------|
A|-----2-----2-------2------2------------------------------------------|
E|-----0-----0-------0------0------------------------------------------|

e|---------------------------------------------------------------------|
B|---------------------------------------------------------------------|
G|-----3-----2-------0------2------------------------------------------|
D|-----2-----2-------2------2------------------------------------------|
A|-----2-----2-------2------2------------------------------------------|
E|-----0-----0-------0------0------------------------------------------|

'Bout the time daddy left to fight the big war ...

e|---------------------------------------------------------------------|
B|---------------------------------------------------------------------|
G|-----3-----2-------0-------5-----------------------------------------|
D|-----2-----2-------2-------4-----------------------------------------|
A|-----2-----2-------2-------2-----------------------------------------|
E|-----0-----0-------0-------------------------------------------------|

I saw my first pistol in the general store




| /  slide up
| \  slide down
| h  hammer-on
| p  pull-off
| ~  vibrato
| +  harmonic
| x  Mute note
===============================================================================
Tap to rate this tab
# A B C D E F G H I J K L M N O P Q R S T U V W X Y Z