Steve Fisk Benjamin Gibbard - Overture tab

This is my first tab ever. I looked at the different tabs of this song on this site,
the one said to be done by Ben Gibbard himself and tweaked them to sound the way the song
The song is in half step down tuning. IF something sounds wrong to you, send a message 
me know.

       Part A

E|-----7---------------------------|
B|---------------------10----------|
G|--------7\4--------------7\4-----|
D|-0---------------0---------------|
A|---------------------------------|
E|---------------------------------|

       Part B

E|---------------------------------|
B|---------------------------------|
G|---0-2-0-2-0----0-2-0-9-7--------|
D|-0------------0------------------|
A|---------------------------------|
E|---------------------------------|

       Part C

E|---------------------------------|
B|----10---------------7-----------|
G|--------7/4-------------7/4------|
D|-0---------------0---------------|
A|---------------------------------|
E|---------------------------------|

       Part B again

E|---------------------------------|
B|---------------------------------|
G|---0-2-0-2-0----0-2-0-9-7--------|
D|-0------------0------------------|
A|---------------------------------|
E|---------------------------------|

       Part D

E|-------------3----5----7---------|
B|--0----3-------------------------|
G|---------------------------------|
D|---------------------------------|
A|---------------------------------|
E|---------------------------------|

       Part F

E|---------------------------------|
B|---------------------------------|
G|--9~~-------9~~------------------|
D|---------------------------------|
A|---------------------------------|
E|---------------------------------|

The last two notes, the 9's, are played at the very end. They have a slight vibrato with them.


Parts in order.

A,B,C,B,A,B,C,B,D,A,B,C,B,A,B,C,B,D,F,D,F.

Very long order, but it goes by quick when you play along. :) haha

Enjoy.
Tap to rate this tab
 
# A B C D E F G H I J K L M N O P Q R S T U V W X Y Z