Song name
# A B C D E F G H I J K L M N O P Q R S T U V W X Y Z

Steve Howe - Your Move tab

-------------------------------------------------------------------------------
			     Your Move  Steve Howe of YES
-------------------------------------------------------------------------------
Tabbed by: ed28112
Email: jstanley11@carolina.rr.com

Tuning: Standard

e|--4--5--4--5--4--9--7--4---------4--5--4--5--4--2--0--4---------|
B|------------------------------------------------------5---------|
G|--4--6--4--6--4--9--8--4---------4--6--4-6--4--2--1--6---------|
D|------------------------------------------------------6---------|
A|----------------------------------------------------------------|
E|--------------------------0-0-0--------------------------0-0-0--|

e|--4--5--4--5--4--9--7--11--9--14--14----14---14----14----14----16-14-17-16-14-16--|
B|------------------------------------0-----0----0-----0-----0----------------------|
G|--4--6--4--6--4--9--8--11--9--14-----14----14---14----14----14--------------------|
D|----------------------------------------------------------------------------------|
A|----------------------------------------------------------------------------------|
E|----------------------------------------------------------------------------------|

e|--0-0-0---0-0-0-0--0-0-0-0--5-5-5---0---|
B|--0-0-0---0-0-0-0--0-0-0-0--5-5-5---0---|
G|--1-1-1---2-2-2-2--4-4-4-4--6-6-6---1---|
D|--2-2-2---4-4-4-4--6-6-6-6--7-7-7---2---|
A|--2-2-2---4-4-4-4--6-6-6-6--7-7-7---2---|
E|--0-0-0---0-0-0-0--0-0-0-0--0-0-0---0---|
Tap to rate this tab
 
# A B C D E F G H I J K L M N O P Q R S T U V W X Y Z