Song name
# A B C D E F G H I J K L M N O P Q R S T U V W X Y Z

Steve Miller Band - Swingtown tab

-------------------------------------------------------------------------------
			     Swingtown - Steve Miller Band
-------------------------------------------------------------------------------
Tuning:eBGDAE

Intro            (x16)
e|-------------------|
B|--2-----3-----5---.|
G|--2-----2-----4----|
D|--2-----4-----6---.|
A|--0-0-0-0-0-0-0-0--|
E|-------------------|
 
Chorus                                                     (x2)
e|------------------------------------------------------------|
B|--2-----3-----5---2-----3-----5---2-----3-----5---2-----3--.|
G|--2-----2-----4---2-----2-----4---2-----2-----4---2-----2---|
D|--2-----4-----6---2-----4-----6---2-----4-----6---2-----4--.|
A|--0-0-0-0-0-0-0-0-0-0-0-0-0-0-0-0-0-0-0-0-0-0-0-0-0-0-0-0---|
E|------------------------------------------------------------|
    |------------ Ooooooo Ooooooooooooohhhh ---------------|

e|------------------------------------------------------------|
B|--2-----3-----5---2-----3-----5---2-----3-----5---2-----3---|
G|--2-----2-----4---2-----2-----4---2-----2-----4---2-----2---|
D|--2-----4-----6---2-----4-----6---2-----4-----6---2-----4---|
A|--0-0-0-0-0-0-0-0-0-0-0-0-0-0-0-0-0-0-0-0-0-0-0-0-0-0-0-0---|
E|------------------------------------------------------------|
 Come on and dance, come on and dance lets make some romance

e|------------------------------------------------------------|
B|--2-----3-----5---2-----3-----5---2-----3-----5---2-----3---|
G|--2-----2-----4---2-----2-----4---2-----2-----4---2-----2---|
D|--2-----4-----6---2-----4-----6---2-----4-----6---2-----4---|
A|--0-0-0-0-0-0-0-0-0-0-0-0-0-0-0-0-0-0-0-0-0-0-0-0-0-0-0-0---|
E|------------------------------------------------------------|
 You know the night is fallin, and the musics callin, and we've got to get down to

e|-2----2----|
B|-3----3----|
G|-2----2----|
D|-0----0----|
A|-----------|
E|-----------|
   Swingtown.

Verse
e|--------------------------------------|
B|-0-0-x-0-0-x-0-0-x-0-0-x-0-0-x-0-0-x--|
G|-1-1-x-1-1-x-1-1-x-1-1-x-1-1-x-1-1-x--|
D|-0-0-x-0-0-x-0-0-x-0-0-x-0-0-x-0-0-x--|
A|-2-2-x-2-2-x-2-2-x-2-2-x-2-2-x-2-2-x--|
E|-0-0-x-0-0-x-0-0-x-0-0-x-0-0-x-0-0-x--|
 We've been working so hard we've been working so hard.

e|--------------------------------------|
B|-0-0-x-0-0-x-0-0-x-0-0-x-0-0-x-0-0-x--|
G|-1-1-x-1-1-x-1-1-x-1-1-x-1-1-x-1-1-x--|
D|-0-0-x-0-0-x-0-0-x-0-0-x-0-0-x-0-0-x--|
A|-2-2-x-2-2-x-2-2-x-2-2-x-2-2-x-2-2-x--|
E|-0-0-x-0-0-x-0-0-x-0-0-x-0-0-x-0-0-x--|
 Come on baby, come on bably lets dance.

                 (x4)
e|-------------------|
B|--2-----3-----5---.|
G|--2-----2-----4----|
D|--2-----4-----6---.|
A|--0-0-0-0-0-0-0-0--|
E|-------------------|

Chorus                                                     (x2)
e|------------------------------------------------------------|
B|--2-----3-----5---2-----3-----5---2-----3-----5---2-----3--.|
G|--2-----2-----4---2-----2-----4---2-----2-----4---2-----2---|
D|--2-----4-----6---2-----4-----6---2-----4-----6---2-----4--.|
A|--0-0-0-0-0-0-0-0-0-0-0-0-0-0-0-0-0-0-0-0-0-0-0-0-0-0-0-0---|
E|------------------------------------------------------------|
    |------------ Ooooooo Ooooooooooooohhhh ---------------|

e|------------------------------------------------------------|
B|--2-----3-----5---2-----3-----5---2-----3-----5---2-----3---|
G|--2-----2-----4---2-----2-----4---2-----2-----4---2-----2---|
D|--2-----4-----6---2-----4-----6---2-----4-----6---2-----4---|
A|--0-0-0-0-0-0-0-0-0-0-0-0-0-0-0-0-0-0-0-0-0-0-0-0-0-0-0-0---|
E|------------------------------------------------------------|
 Come on and dance, come on and dance lets make some romance

e|------------------------------------------------------------|
B|--2-----3-----5---2-----3-----5---2-----3-----5---2-----3---|
G|--2-----2-----4---2-----2-----4---2-----2-----4---2-----2---|
D|--2-----4-----6---2-----4-----6---2-----4-----6---2-----4---|
A|--0-0-0-0-0-0-0-0-0-0-0-0-0-0-0-0-0-0-0-0-0-0-0-0-0-0-0-0---|
E|------------------------------------------------------------|
 You know the night is fallin, and the musics callin, and we've got to get down to

e|-2----2----|
B|-3----3----|
G|-2----2----|
D|-0----0----|
A|-----------|
E|-----------|
   Swingtown.

Solo
e|----------------------------------------------------|---------------------10---|
B|-10-11-11-10-11-10-11-13-10-11-11-10-11-10-11-10----|-11h13p11p10--/10-11------|
G|-10-10-10-10-10-10-10-10-10-10-10-10-10-10-10-10---'|--------------/10---------|
D|---------------------------------------------------'|--------------------------|
A|----------------------------------------------------|--------------------------|
E|----------------------------------------------------|--------------------------|

Outro
e|-----------------------------------------------------------|
B|-----------------------------------------------------------|
G|-----------------------------------------------------------|
D|--3/15~~13-12-10-13-12-8~3~~------3/15~~13-12-10-13-12-8~~-|
A|-----------------------------------------------------------|
E|-----------------------------------------------------------|


| /  slide up
| \  slide down
| h  hammer-on
| p  pull-off
| ~  vibrato
| +  harmonic
| x  Mute note
===============================================================================
Tap to rate this tab
# A B C D E F G H I J K L M N O P Q R S T U V W X Y Z