Guitaretab - guitar tabs
Song name
# A B C D E F G H I J K L M N O P Q R S T U V W X Y Z

Steve Miller Band - Jungle Love tab

#----------------------------------PLEASE NOTE---------------------------------#
#This file is the author's own work and represents their interpretation of the #
#song. You may only use this file for private study, scholarship, or research. #
#------------------------------------------------------------------------------##

                                   JUNGLE LOVE
                      As recorded by The Steve Miller Band 
                      (From the 1977 Album BOOK OF DREAMS)

Words and Music by Greg Dougless
Arranged by Steve MIller and Greg Dougless
Transcribed by Mandoman

Gtr I (E A D G B E) - 'gtr 1 '

 Intro                                        1st Verse
  Moderate Rock Q=144
                                               E      E A    D
 4/4
  Gtr I
  E E E E E E E E   +W           +W            Q  E E E  E E E
|-----------------|------------|------------||------------------|
|-----------------|------------|------------||-9------9h10---7--|
|-----------------|------------|------------||-9------9--9---7--|
|-----------------|------------|------------||-9----9-9h11---7--|
|-------0-2-4-0-9-|-(9)--------|-(9)--------||---------------5--|
|-0-2-4-----------|------------|------------||------------------|


                 A                 E         D           E      E A    D
  +Q   E E E E E E   Q  E E  E E E E   Q   E E E E E E   Q  E E E  E E E
|------------------|-----------------|-----------------|------------------|
|----------7-5-3-2-|---------------9-|-----------------|--------9h10---7--|
|-(7)------------2-|---------------9-|-9\--------7---7s|=9------9--9---7--|
|-(7)------7-6-4-2-|---------------9-|-9\----7---7---7s|=9----9-9h11---7--|
|-(5)----0-0-0-0-0-|------0-/4-2-0-7-|-7\----5-------5s|=7-------------5--|
|------------------|-----------------|-----------------|------------------|


                 A                 E         D           E      E A    D
  +Q   E E E E E E   Q  E E  E E E E   Q   E E E E E E   Q  E E E  E E E
|------------------|-----------------|-----------------|------------------|
|----------7-5-3-2-|---------------9-|-----------------|--------9h10---7--|
|-(7)------------2-|---------------9-|-9\--------7---7s|=9------9--9---7--|
|-(7)------7-6-4-2-|---------------9-|-9\----7---7---7s|=9----9-9h11---7--|
|-(5)----0-0-0-0-0-|------0-/4-2-0-7-|-7\----5-------5s|=7-------------5--|
|------------------|-----------------|-----------------|------------------|


                 A                 E         D               E      E A    D
  +Q   E E E E E E   Q  E E  E E E E   Q   E E E E     E E   Q  E E E  E E E
|------------------|-----------------|---------------------|------------------|
|----------7-5-3-2-|---------------9-|---------------------|--------9h10---7--|
|-(7)------------2-|---------------9-|-9\----------------7S|=9------9--9---7--|
|-(7)------7-6-4-2-|---------------9-|-9\----7---7b7.5---7S|=9----9-9h11---7--|
|-(5)----0-0-0-0-0-|------0-/4-2-0-7-|-7\----5-----------5S|=7-------------5--|
|------------------|-----------------|---------------------|------------------|


               A                 E5
  Q  E E E E E E   Q  E E  E E E E   +Q    E  E E E E E
|----------------|-----------------|--------------------|
|--------7-5-3-2-|-----------------|--------------------|
|-7------------2-|-----------------|----------------1-2-|
|-7------7-6-4-2-|---------------9-|-(9)\---------4-----|
|-5----0-0-0-0-0-|------0-/4-2-0-7-|-(7)\----/2---------|
|----------------|-----------------|--------------------|


  1st Chorus
   F#m      E   A                  E            E     A
   Q  E E E E E E   +E  Q  E E E E E   +Q   E E E E E E   +Q    E E E E E E
||-2------2-4---5-|-(5)------5---5-4-|-(4)------4h5-4-5-|-(5)---------------|
||-2------2-5---5-|-(5)------5h7-5-5-|-(5)------5---5-5-|-(5)---------------|
||-2------2-4---6-|-(6)------6---6-4-|-(4)----4-4---4-6-|-(6)---------2-----|
||-4----4-4-----7-|-(7)----7---------|----------------7-|-(7)-----2-4---4-2-|
||----------------|------------------|------------------|------/4-----------|
||----------------|------------------|------------------|-------------------|


  F#m      E   A                  E            E   A
  Q  E E E E E E   +E  Q  E E E E E   +Q   E E E E Q
|-2------2-4---5-|-(5)------5---5-4-|-(4)------4h5-4--|
|-2------2-5---5-|-(5)------5-7-5-5-|-(5)------5---5--|
|-2------2-4---6-|-(6)------6---6-4-|-(4)----4-4---4--|
|-4----4-4-----7-|-(7)----7---------|-----------------|
|----------------|------------------|-----------------|
|----------------|------------------|-----------------|


                           2nd Verse
  F#                        E      E A    D
   ~~
   W          +W            Q  E E E  E E E
|-/6--------|-(6)--------||-----------------|
|-/7--------|-(7)--------||-9------9h10---7-|
|-/6--------|-(6)--------||-9------9--9---7-|
|-----------|------------||-9----9-9h11---7-|
|-----------|------------||---------------5-|
|-----------|------------||-----------------|


                 A                 E         D               E      E A    D
  +Q   E E E E E E   Q  E E  E E E E   Q   E E E E     E E   Q  E E E  E E E
|------------------|-----------------|---------------------|------------------|
|----------7-5-3-2-|---------------9-|---------------------|--------9h10---7--|
|-(7)------------2-|---------------9-|-9\--------7b7.5---7s|=9------9--9---7--|
|-(7)------7-6-4-2-|---------------9-|-9\----------------7s|=9----9-9h11---7--|
|-(5)----0-0-0-0-0-|------0-/4-2-0-7-|-7\----5-----------5s|=7-------------5--|
|------------------|-----------------|---------------------|------------------|


                 A                 E           D           E      E A    D
  +Q   E E E E E E   Q  E E  E E E E   +E  E E E E E E E   Q  E E E  E E E
|------------------|-----------------|-------------------|------------------|
|----------7-5-3-2-|---------------0-|-(0)---3---2---7-8-|-9------9h10---7--|
|-(7)------------2-|---------------1-|-(1)---2---2---7-8-|-9------9--9---7--|
|-(7)------7-6-4-2-|---------------2-|-(2)-2---2---2-7-8-|-9----9-9h11---7--|
|-(5)----0-0-0-0-0-|------0-/4-2-0-2-|-(2)---------------|---------------5--|
|------------------|-----------------|-------------------|------------------|


                 A                 E         D               E      E A    D
  +Q   E E E E E E   Q  E E  E E E E   Q   E E E E     E E   Q  E E E  E E E
|------------------|-----------------|---------------------|------------------|
|----------7-5-3-2-|---------------9-|---------------------|--------9h10---7--|
|-(7)------------2-|---------------9-|-9\----------------7S|=9------9--9---7--|
|-(7)------7-6-4-2-|---------------9-|-9\----7---7b7.5---7S|=9----9-9h11---7--|
|-(5)----0-0-0-0-0-|------0-/4-2-0-7-|-7\----5-----------5S|=7-------------5--|
|------------------|-----------------|---------------------|------------------|


                 A                 E5
  +Q   E E E E E E   Q  E E  E E E E   +Q    E  E E E E E
|------------------|-----------------|--------------------|
|----------7-5-3-2-|-----------------|--------------------|
|-(7)------------2-|-----------------|----------------1-2-|
|-(7)------7-6-4-2-|---------------9-|-(9)\---------4-----|
|-(5)----0-0-0-0-0-|------0-/4-2-0-7-|-(7)\----/2---------|
|------------------|-----------------|--------------------|


  2nd Chorus
   F#m      E   A                  E                  A
   Q  E E E E E E   +E  Q  E E E E E   +Q   E E E E E E
||-2------2-4---5-|-(5)------5---5-4-|-(4)------4h5-4-5-|
||-2------2-5---5-|-(5)------5h7-5-5-|-(5)------5---5-5-|
||-2------2-4---6-|-(6)------6---6-4-|-(4)----4-4---4-6-|
||-4----4-4-----7-|-(7)----7---------|----------------7-|
||----------------|------------------|------------------|
||----------------|------------------|------------------|


                       F#m      E   A                  E
  +Q   a E E E E E E   Q  E E E E E E   +E  Q  E E E E E
|-(5)----------------|-2------2-4---5-|-(5)------5---5-4-|
|-(5)----------------|-2------2-5---5-|-(5)------5-7-5-5-|
|-(6)----------2-----|-2------2-4---6-|-(6)------6---6-4-|
|-(7)------2-4---4-2-|-4----4-4-----7-|-(7)----7---------|
|------2S4-----------|----------------|------------------|
|--------------------|----------------|------------------|


                    F#
                     ~~
  +Q   E E E E Q     W          +W
|-(4)------4h5-4--|-/6--------|-(6)----|
|-(5)------5---5--|-/7--------|-(7)----|
|-(4)----4-4---4--|-/6--------|-(6)----|
|-----------------|-----------|--------|
|-----------------|-----------|--------|
|-----------------|-----------|--------|


  Breakdown
   E     A    E       G     C   G         E        A   E
    q  E  E E E E E    E  E  q   Q   Q     q  E  E E E E E
||------------------|-------------------|-------------------|
||-/9----10---9---9S|=12-12-13--12\-----|-/9----10---9---9S=|
||-/9-----9---9---9S|=12-12-12--12\-----|-/9-----9---9---9S=|
||-/9----11---9---9S|=12-12-14--12\-----|-/9----11---9---9S=|
||------------------|-------------------|-------------------|
||------------------|-------------------|-------------------|

[ Tab from: http://www.guitaretab.com/s/steve-miller-band/169569.html ]
  G     C   G         E     A    E       G     C   G
   E  E  q   Q   Q     q  E  E E E E E    E  E  q   Q   Q
|-------------------|------------------|-------------------|
|-12-12-13--12\-----|-/9----10---9---9S|=12-12-13--12\-----|
|-12-12-12--12\-----|-/9-----9---9---9S|=12-12-12--12\-----|
|-12-12-14--12\-----|-/9----11---9---9S|=12-12-14--12\-----|
|-------------------|------------------|-------------------|
|-------------------|------------------|-------------------|


  E
  H..       E   H..       E   Q  E E E E E E
|-------------|-------------|----------------|
|-9---------9-|-9---------9-|-9--9-9-9-9-9-9-|
|-9---------9-|-9---------9-|-9--9-9-9-9-9-9-|
|-9---------9-|-9---------9-|-9--9-9-9-9-9-9-|
|-7---------7-|-7---------7-|-7--7-7-7-7-7-7-|
|-------------|-------------|----------------|


                    3rd Verse
                     E        A    D                  A                  D
  E E E E E E E E    Q  E E E  E E E   +Q   E E E E E E   Q  E E a E E E E
|-----------------||-----------------|------------------|------------------|
|-----------------||-9------9h10---7-|-(7)------7-5-3-2-|----------------9-|
|-----------------||-9------9--9---7-|-(7)------------2-|----------------9-|
|-----------------||-9----9-9h11---7-|-(7)------7-6-4-2-|----------------9-|
|---------0-2-4-0-||---------------5-|-(5)----0-0-0-0-0-|------0-2s4-2-0-7-|
|---0-2-4---------||-----------------|------------------|------------------|


                  D5  E5     E A    D                  A                  E
  +Q    E E E E E E   Q  E E E  E E E   +Q   E E E E E E   Q  E E a E E E E
|-------------------|-----------------|------------------|------------------|
|-------------------|--------9h10---7-|-(7)------7-5-3-2-|----------------0-|
|-(9)\--------7-----|-9------9--9---7-|-(7)------------2-|----------------1-|
|-(9)\------------7-|-9----9-9h11---7-|-(7)------7-6-4-2-|----------------2-|
|-(7)\----5-------5s|=7-------------5-|-(5)----0-0-0-0-0-|------0-2s4-2-0-2-|
|-------------------|-----------------|------------------|------------------|


        AsusA   D D#  E      E A    D                  A                  E
  +E  E E E E E E E   Q  E E E  E E E   +Q   E E E E E E   Q  E E a E E E E
|-------------------|-----------------|------------------|------------------|
|-(0)---3---2---7-8-|-9------9h10---7-|-(7)------7-5-3-2-|----------------9-|
|-(1)---2---2---7-8-|-9------9--9---7-|-(7)------------2-|----------------9-|
|-(2)-2---2---2-7-8-|-9----9-9h11---7-|-(7)------7-6-4-2-|----------------9-|
|-(2)---------------|---------------5-|-(5)----0-0-0-0-0-|------0-2s4-2-0-7-|
|-------------------|-----------------|------------------|------------------|


       T     T     T     T     T     T
  +Q   E     E     E     E     E     E
|------------------------7(19)-------------|
|-(9)--------------9(21)-------9(21)-------|
|-(9)--------9(21)-------------------9(21)-|
|-(9)--9(21)-------------------------------|
|------------------------------------------|
|------------------------------------------|


  E5       A    D                  A
  Q  E E E  E E E   +Q   E E E E E E   Q  E E a E E E E
|-----------------|------------------|------------------|
|--------9h10---7-|-(7)------7-5-3-2-|------------------|
|-9------9--9---7-|-(7)------------2-|------------------|
|-9----9-9h11---7-|-(7)------7-6-4-2-|----------------9-|
|-7-------------5-|-(5)----0-0-0-0-0-|------0-2s4-2-0-7-|
|-----------------|------------------|------------------|


                       Out-Chorus
                        F#m      E   A                  E                  A
  +Q    E  E E E E E    Q  E E E E E E   +E  Q  E E E E E   +Q   E E E E E E
|--------------------||-2------2-4---5-|-(5)------5---5-4-|-(4)------4h5-4-5--|
|--------------------||-2------2-5---5-|-(5)------5h7-5-5-|-(5)------5---5-5--|
|----------------1-2-||-2------2-4---6-|-(6)------6---6-4-|-(4)----4-4---4-6--|
|-(9)\---------4-----||-4----4-4-----7-|-(7)----7---------|----------------7--|
|-(7)\----/2---------||----------------|------------------|-------------------|
|--------------------||----------------|------------------|-------------------|


                    F#m      E   A                  E                  A
  Q   E E E E E E   Q  E E E E E E   +E  Q  E E E E E   +Q   E E E E E E
|-5---------------|-2------2-4---5-|-(5)------5---5-4-|-(4)------4h5-4-5--|
|-5---------------|-2------2-5---5-|-(5)------5h7-5-5-|-(5)------5---5-5--|
|-6---------2-----|-2------2-4---6-|-(6)------6---6-4-|-(4)----4-4---4-6--|
|-7-----2-4---4-2-|-4----4-4-----7-|-(7)----7---------|----------------7--|
|----/4-----------|----------------|------------------|-------------------|
|-----------------|----------------|------------------|-------------------|


                    F#m      E   A                  E                  A
  Q   E E E E E E   Q  E E E E E E   +E  Q  E E E E E   +Q   E E E E E E
|-5---------------|-2------2-4---5-|-(5)------5---5-4-|-(4)------4h5-4-5--|
|-5---------------|-2------2-5---5-|-(5)------5h7-5-5-|-(5)------5---5-5--|
|-6---------2-----|-2------2-4---6-|-(6)------6---6-4-|-(4)----4-4---4-6--|
|-7-----2-4---4-2-|-4----4-4-----7-|-(7)----7---------|----------------7--|
|----/4-----------|----------------|------------------|-------------------|
|-----------------|----------------|------------------|-------------------|


                    F#m      E   A                  E
  Q   E E E E E E   Q  E E E E E E   +E  Q  E E E E E   +Q   E E E E Q
|-5---------------|-2------2-4---5-|-(5)------5---5-4-|-(4)------4h5-4---|
|-5---------------|-2------2-5---5-|-(5)------5h7-5-5-|-(5)------5---5---|
|-6---------2-----|-2------2-4---6-|-(6)------6---6-4-|-(4)----4-4---4---|
|-7-----2-4---4-2-|-4----4-4-----7-|-(7)----7---------|------------------|
|----/4-----------|----------------|------------------|------------------|
|-----------------|----------------|------------------|------------------|


                           Outro
  F#                        E     A    E       G     C   G
   ~~
   W          +W             q  E  E E E E E    E  E  q   Q   Q
|-/6--------|-(6)--------||------------------|--------------------|
|-/7--------|-(7)--------||-/9----10---9---9S|=12-12-13--12\------|
|-/6--------|-(6)--------||-/9-----9---9---9S|=12-12-12--12\------|
|-----------|------------||-/9----11---9---9S|=12-12-14--12\------|
|-----------|------------||------------------|--------------------|
|-----------|------------||------------------|--------------------|


  E     A    E       G     C   G         E     A    E
   q  E  E E E E E    E  E  q   Q   Q     q  E  E E E E E
|------------------|-------------------|-------------------|
|-/9----10---9---9S|=12-12-13--12\-----|-/9----10---9---9S=|
|-/9-----9---9---9S|=12-12-12--12\-----|-/9-----9---9---9S=|
|-/9----11---9---9S|=12-12-14--12\-----|-/9----11---9---9S=|
|------------------|-------------------|-------------------|
|------------------|-------------------|-------------------|


  G     C   G        E
   E  E  q   H       H..       E   H..       E
|------------------|-------------|-------------|
|-12-12-13--12\----|-9---------9-|-9---------9-|
|-12-12-12--12\----|-9---------9-|-9---------9-|
|-12-12-14--12\----|-9---------9-|-9---------9-|
|------------------|-7---------7-|-7---------7-|
|------------------|-------------|-------------|


  Q  E E E E E E   Q  H.
|----------------|----------*|
|-9--9-9-9-9-9-9-|-9--------*|
|-9--9-9-9-9-9-9-|-9--------*|
|-9--9-9-9-9-9-9-|-9--------*|
|-7--7-7-7-7-7-7-|-7--------*|
|----------------|----------*|


Duration Legend
---------------
W - whole; H - half; Q - quarter; E - 8th; S - 16th; T - 32nd; X - 64th; a - acciaccatura
+ - note tied to previous; . - note dotted; .. - note double dotted
Uncapitalized letters represent notes that are staccato (1/2 duration)
Irregular groupings are notated above the duration line
Duration letters will always appear directly above the note/fret number it represents the
duration for.  Duration letters with no fret number below them represent rests.  Multi-
bar rests are notated in the form Wxn, where n is the number of bars to rest for.  Low
melody durations appear below the staff

Tablature Legend
----------------
 h   - hammer-on
 p   - pull-off
 b   - bend
 pb  - pre-bend
 r   - bend release (if no number after the r, then release immediately)
 /\  - slide into or out of (from/to "nowhere")
 s   - legato slide
 S   - shift slide
  - natural harmonic
[n]  - artificial harmonic
n(n) - tapped harmonic
 ~   - vibrato
 tr  - trill
 T   - tap
 TP  - trem. picking
 PM  - palm muting
\n/  - tremolo bar dip; n = amount to dip
 \n  - tremolo bar down
 n/  - tremolo bar up
/n\  - tremolo bar inverted dip
 =   - hold bend; also acts as connecting device for hammers/pulls
 <>  - volume swell (louder/softer)
 x   - on rhythm slash represents muted slash
 o   - on rhythm slash represents single note slash

Misc Legend
-----------
 |  - bar
||  - double bar
||o - repeat start
o|| - repeat end
*|  - double bar (ending)
 :  - bar (freetime)
 $  - Segno
 &  - Coda
Tempo markers -  = BPM(8/16=s8/s16), where s8 = swing 8ths, s16 = swing 16ths


***************************************************************************************
* Generated using Power Tab Editor by Brad Larsen - http://powertab.guitarnetwork.org *
***************************************************************************************
Related for Jungle Love tab