Song name
# A B C D E F G H I J K L M N O P Q R S T U V W X Y Z

Steve Miller - Jungle Love tab

Artist: Steve Miller band
Song: Jungle Love
Tabbed by: John Leadman

Intro:
/-----------------|
/---------------3-|
/---------------0-|
/-----------0-----|
/-----0-1-3---1---|
/-1-3-------------|

Verse:
/--------------------------------------------------|
/--------------------------------------------------|
/---------------------------------------3----------|
/---------0-1--0-1-0-------------0-3--1------------|
/--3--0-3------------3-0---0-3-0-------------------|
/--1--------------------------------------0/1------|

Bridge:
/----------------------|
/----------------------|
/---5-3-------5-3------|
/-3-3-1-------3-1------|
/-1-----0/3\1----------|
/----------------------|
Tap to rate this tab
# A B C D E F G H I J K L M N O P Q R S T U V W X Y Z