Song name
# A B C D E F G H I J K L M N O P Q R S T U V W X Y Z

Steve Rushton - Emergency tab

Band - Steve Rushton
Song - Emergency
Tabbed By: SumFX (Tyler Freear)

Awesome Catchy Song By Steve Rushton!
As Soon As I Heard It I Picked Up My Guitar And Figured It Out.

Listen For The Variations On Strumming, Its Not Hard :)

. = Palm Mute
/ = Slide
v = Vibrato
x = Dead Notes/String Mute

Intro/Verse 1
|-------------------------------------------------------------|
|-------------------------------------------------------------|
|-------------------------------------------------------------|
|-55-5-55-5/7--77-7-77-7/10--1010-10-1010/12--1212-12-12-12\--|
|-33-3-33-3/5--55-5-55-5/8---8-8--8--8-8-/10--1010-10-10-10\--|
|-------------------------------------------------------------|
  ..   ..      ..   ..       ..      ..       . .      .

Lead Line/Post Chorus
|-----------------|----------------|
|-----------------|----------------|
|--5/9-999-9-9/5--|-5/9-999-9-9/7--|
|-----------------|----------------|
|-----------------|----------------|
|-----------------|----------------|

Pre Chorus
|-------------|
|-------------|
|-------------|
|-------------|
|-------------|
|-5v--7v--3v--|

Chorus
|-------------x3------------|-----------------------------------------|
|---------------------------|-----------------------------------------|
|---------------------------|-----------------------------------------|
|-5(x8)-7(X8)---------------|-55555555-77777777--10101010101010/12-12-|
|-3-----5-----3(x8)-5x5x5x--|-33333333-55555555--8-8-8-8-8-8-8-/10-10-|
|-------------1-----3x3x3x--|-----------------------------------------|

Post Chorus
|-----------------------------------|
|-----------------------------------|
|-----------------------------------|
|----------77777777-----------------|
|-55555555-55555555-33333333--5x5x5-|
|-33333333----------11111111--3x3x3-|

Verse 2
|----------------------|
|----------------------|
|----------------------|
|-55--77--1010--12-12--|
|-33--55--8-8---10-10--|
|----------------------|

Bridge pt.1
(Clean w/Ska Strumming)
|--------------3--3--3--3--|
|-5--5--5--5---3--3--3--3--|
|-5--5--5--5---4--4--4--4--|
|-5--5--5--5---5--5--5--5--|
|-3--3--3--3---5--5--5--5--|
|--------------3--3--3--3--|

Bridge pt.2                               E -  Mer - Gen -  Cy
|-----------------------------|-------------------------------------|
|-----------------------------|-------------------------------------|
|-5-------------------5-------|-------------------------------------|
|-5----2----3----3----5----5--|------------555--777--101010--121212-|
|-3----2----3----3----3----5--|-55555555---333--555--8-8-8---101010-|
|------0----1----1---------3--|-33333333----------------------------|
                                ........
Outro
|----------------|
|----------------|
|-------5--------|
|-2-----5-----5--|
|-2-----3-----5--|
|-0-----------3--|

Structure

Intro
Verse 1
Pre Chorus
Chorus
Post Chorus
Verse 2
Chorus
Post Chorus
Bridge pt.1
Bridge pt.2
Chorus
Outro

There Ya Go!

Rate & Comments Would Make Me A Happy Boy :)
Tap to rate this tab
# A B C D E F G H I J K L M N O P Q R S T U V W X Y Z