Song name
# A B C D E F G H I J K L M N O P Q R S T U V W X Y Z

Steve Stevens - Top Gun Anthem tab

*I know this is not the real tab for the song, the bottom might be though, but the first
riff i created myself when trying to learn this song by ear.  Its sounds good but not
high enough to be the real, its more lower sounding.  So please dont hate on me because 
its not the real.  I just wanted to share this people.*


-Also i submitted another version but it was wrong so i re-uploaded this one, i dont
know if the other one is up, but this is the real, not the other one that looks like 
this one-




e|-------------------------------------------------------|
B|-------------------------------------------------------|
G|------(7)-7--5-4-5-4-----------------------------------|
D|--3/5---------------(7)-7--5-7-9--7-9-10--9-5-3/9--9~--|
A|-------------------------------------------------------|
E|-------------------------------------------------------|


e|----------------------------------------------|
B|------7-7--5-4-5-4----------5--5-6--5---5-----|
G|--2/5--------------7-7--5-7---7-------5---5---|
D|----------------------------------------------|
A|----------------------------------------------|
E|----------------------------------------------|
Tap to rate this tab
# A B C D E F G H I J K L M N O P Q R S T U V W X Y Z