Song name
# A B C D E F G H I J K L M N O P Q R S T U V W X Y Z

Steve Vai - Im The Hell Outta Here tab

This Is 100% Right
Please Loook at the tab then come back and rate it.

I'm not sure about this part but its the best it sounded. Please comment on it with corrections.
Remember you need a wah pedal for the song and a whammy bar.

         Do this as many time as needed
E-----------------15t17t19------------------15---------------17b18---|
B--------------------------------------------------------------------|
G--------------------------------------------------------------------|
D--------------------------------------------------------------------|
A--------------------------------------------------------------------|
E--------------------------------------------------------------------|
This part is missing some little stuff
E--------------------------------------------------------------------|
B--------------------------------------------------------------------|
G--------3-------5---5-5-----3---------------------------------------|
D---5----3-5-----5---5-5-----3--------5------3-----------------------| X2
A---5----1-5-----3---3-3-----1---5-7----7-5--3-------3---------------|
E---3------3---------------------------------1---3-5---5--3----------|

E---------6-------6------6-----6--6----------------------------------|
B---------6-------6------6-----6--6----------------------------------|
G---------5-------5------5-----5--5----------------------------------|
D--------------------------------------------------------------------|X2
A--------------------------------------------------------------------|
E-----3------3-3-----3-3----3----------------------------------------|

E--------------------------------------------------------------------|
B--13b15--13p11--13b15--13p11--13-13-13-13-13--11h13b15-13p11--------|
G--------------------------------------------------------------12----|
D--------------------------------------------------------------------|
A--------------------------------------------------------------------|
E--------------------------------------------------------------------|

E--------------------------------------------------------------------|
B----15-15-17-18-17-15-17--------15p13-------------------------------|
G---------------------------------------15---------------------------|
D--------------------------------------------------------------------|
A--------------------------------------------------------------------|
E--------------------------------------------------------------------|

E---------------------------------------------------------------------|
B--13b15--13-11--13b15--13-11--13b-13b-13b-13b-13b--13b15b13-11-------|
G----------------------------------------------------------------12---|
D---------------------------------------------------------------------|
A---------------------------------------------------------------------|
E---------------------------------------------------------------------|
                                         Pick Slide
E--------------------------------------------------------------------|
B---15-15-17-18-17-15--20-----15------------XXX----------------------|
G-------------------------------------------XXX----------------------|
D--------------------------------------------------------------------|
A--------------------------------------------------------------------|
E--------------------------------------------------------------------|

E--------------------------------------------------------------------|
B--15-18-17-13-10-----------15-17-18---20---------20-20--------------|
G--------------------------------------------------------------------|
D------------------------------------------17-17---------------------|
A--------------------------------------------------------------------|
E--------------------------------------------------------------------|

E--------------------------------------------------------------------|
B--13b15b13---11-13-11-13b15b13-11-----------------------------------|
G-----------------------------------12-------------------------------|
D--------------------------------------------------------------------|
A--------------------------------------------------------------------|
E--------------------------------------------------------------------|

Thats the basics.
Just listen to it. Most of the the parts just repetes itself.
Good luck
Tap to rate this tab
 
# A B C D E F G H I J K L M N O P Q R S T U V W X Y Z