Song name
# A B C D E F G H I J K L M N O P Q R S T U V W X Y Z

Steve Vai - Evil Eye tab

Help us improve GuitareTab! Take a short survey!
Evil Eye Tabs (intro)I've don't wanted to sitt for a year or two just to take oute a
tab so i've only took the intro:-P

e|------------------------------------|--------------------------------|
B|------------------------------------|--------------------------------|
G|-8-6----6-9-8-6-----8-6-------------|--8-6----6-9-8-6----------------|
D|-----9-6-------9-8-----9-8-6-5-6-6-6|------9-6--------9-8-6-5-6-6-6-6|
A|------------------------------------|--------------------------------|
E|------------------------------------|--------------------------------|

e|-------------------------------|--------------------------------------|
B|-------------------------------|--------------------------------------|
G|-------6-8-9-------6-8---6---- |------6-8-9-------6-8---6-------------|
D|-9-8-9------8-6-8-9---6-6-9-8--|-9-8-9-----8-6-8-9---6-6-9-8-6-6------|
A|-----------------------9-------|----------------------9-------9-------|
E|-------------------------------|--------------------------------------|
Related for Evil Eye tab