Song name
# A B C D E F G H I J K L M N O P Q R S T U V W X Y Z

Steve Vai - Weeping China Doll tab

Steve Vai - Weeping China Doll 
Story Of Light (2012)

Tuning: 
B F# B E G# C#

Learnt by ear.

Intro Only

C#|-----------------------------------------------------------------|
G#|-----------------------------------------------------------------|
E |-----------------------------------4------------------------4/7--|
B |--------2-4-4b5b4--2--------9b10-------------------2--4--5-------|
F#|-----2------------------7-----------------------2----------------|
B |--0------------------5-----------3------3----0-------------------|

C#|-----------------------------------------------------------------|
G#|------------------------------------------------5s7--------------|
E |-------2b3b2-----0---------------------------4-------------------|
B |--------------2-----s4----------------2--4h5---------------------|
F#|---0-------------------------------2-----------------------------|
B |---------------------3-----3----0--------------------------------|

Will Post Rest Later.


Turabian.
Tap to rate this tab
# A B C D E F G H I J K L M N O P Q R S T U V W X Y Z