Song name
# A B C D E F G H I J K L M N O P Q R S T U V W X Y Z

Stevens Cat - Hard Headed Woman tab

Hard Headed Woman, Cat Stevens

Chord diagrams at bottom

Intro
e ----1-----1-----1---1----1----|
B --3-----3-----3---3----3---3--|
G 2-----0-----0---0----0--------| x4
D ------------------------------|
A ------------------------------|
E ------------------------------|

Dm G Dm G

Verse 1
Dm    G                         C
  I\'m looking for a hard headed woman
Cm               F           Dm   Am
  One who will take me for myself
Bb          G     C           F*
 And if I find my hard headed woman
*(Play while strumming rest of F chord: e 3--1--------- )
 (                                      B ------3-1---- )
 (                                      D ----------2-0 )
Bb         C         F         Am
 I won\'t need nobody else, no, no, no

Verse 2
Dm    G                         C
  I\'m looking for a hard headed woman
Cm               F            Dm   Am
  One who will make me do my best
Bb          G     C           F*
 And if I find my hard headed woman
*(Play while strumming rest of F chord: e 1-3--1--------- )
 (                                      B --------3-1---- )
 (                                      D ------------2-0 )
Bb          C                       F             Am
 I know the rest of my life will be blessed, yes, yes, yes

Verse 3
Dm  G                     C*
  I know a lot of fancy dancers
*(Play while strumming rest of C chord: e 1-0-1-0-1-0-1-0)
Cm               F                 Dm      Am F
  People who can glide you on the floor-or-or
Bb          F  Bb             F  C
 They move so smooth but have no answers, whoa
Gm             C                        F     Am
  When you ask; why\'d you come here for? why?

Verse 4
Am     *   *D                Am
I know many fine feathered friends   (*=hit strings)
            D            F        E*
But their friendliness depends on how you do
*(0-------------------------------)
 (0-------------------------------)
 (1-------------------------------)
 (2-------------------------------)
 (2-----------------------2---2---)
 (0-------2---2---4---4-----------)
Am        *   *D          Am
They know many sure fire ways   (*=hit strings)
         D               F        E*
To find out the one who pays, and how you do
*(0-------------------------------)
 (0-------------------------------)
 (1-------------------------------)
 (2-------------------------------)
 (2-----------------------2---2---)
 (0-------2---2---4---4-----------)

A   A/G

Verse 3
Dm  G                     C*
  I\'m looking for a hard headed woman
*(Play while strumming rest of C chord: e 1-0-1-0-1-0-1-0)
Cm               F                 Dm      Am F
  One who\'ll make me feel so go-oo-ood
Bb          F  Bb             F  C
 And if I find my hard headed woman, whoa
Gm             C                        F     Am
  I know my life will be as it should, yes, yes, yes

Dm G Dm G Dm G Dm

Dm    G   C   Cm  F   Am  Bb  Gm  D   E   A   A/G
e 1---3---0---3---1---0---*---3---2---0---0---0-|
B 3---0---1---4---1---1---3---3---3---0---2---2-|
G 2---0---0---5---2---2---3---3---2---1---2---2-|
D 0---0---2---5---3---2---3---5---0---2---2---2-|
A *---2---3---3---*---0---1---5---*---2---0---0-|
E *---3---*---*---*---*---*---3---*---0---*---3-|
Tap to rate this tab
# A B C D E F G H I J K L M N O P Q R S T U V W X Y Z