Guitaretab - guitar tabs
Song name
# A B C D E F G H I J K L M N O P Q R S T U V W X Y Z

Stevie Ann - The Poetry Man tab

Tabbed By: Thomaso (Tom )
e-mail: totheseaside@hotmail.com

http://www.stevieann.com/

Artiest: Stevie Ann
Titel: The Poetry Man
Album: Away From Here

Capo: 2e Fret
Tuning: Standard E-A-D-G-B-e


(NB: TAB notes order is different, itís  |E 
(no big problem I guess)                 |A
			              |D
			              |G
				     |B
				     |e
Chords

Intro: 

Gadd9:    3-x-0-2-0-x
Em:       0-2-2-0-0-x
Gmaj7:    2-0-0-2-3-3

Verse & Chorus   

Gadd9:    3-x-0-2-0-x
Em:       0-2-2-0-0-x

A7:       X-0-2-0-1-0
B:        X-1-3-3-3-1
C         0-1-0-2-3-0
Bm:       2-2-4-4-3-2
B7        2-2-3-2-3-2
G:        3-2-0-0-2-2
B7:       X-2-1-2-0-2
Cadd9:    X-3-2-0-3-3
Em7:      0-2-2-0-3-3

D:        X-X-0-2-3-2
Dsus2:    X-X-0-2-3-0

Intro

Gadd9                 Em                   Gadd9
E|--3--x-3---3--x-3---0---x-0---0---x-0----3---x-3----3---x-3----|
A|-----x--------x---------x---------x----------x----------x------|
D|---0-x-0----0-x-0-----2-x-2-----2-x-2------0-x-0------0-x-0----|
G|---2-x-2----2-x-2-----0-x-0-----0-x-0------2-x-2------2-x-2----|
B|---0-x-0----0-x-0-----0-x-0-----0-x-0------0-x-3------0-x-3----|
e|-----x--------x---------x---------x----------x----------x------|

Em7          Gmaj7
E|--0--x--0---3--------------------------------------------------|
A|-----x---------------------------------------------------------|
D|---2-x------0--------------------------------------------------|
G|---0-x---0--2--------------------------------------------------|
B|---3-x------3--------------------------------------------------|
e|-----x---------------------------------------------------------|






Couplet 1

Gadd9                 Em                   B
E|--3--x-3---3--x-3---0---x-0---0---x-0----1---x-1----1---x-1----|
A|-----x--------x---------x---------x----------x----------x------|
D|---0-x-0----0-x-0-----2-x-2-----2-x-2------3-x-3------3-x-3----|
B|---2-x-2----2-x-2-----0-x-0-----0-x-0------3-x-3------3-x-3----|
G|---0-x-0----0-x-0-----0-x-0-----0-x-0------3-x-3------3-x-3----|
e|-----x--------x---------x---------x----------x----------x------|

ĎI havenít been hungry for days, bet you can tell by the look......

   B            A7
E|-1--x-1--0-----------------------------------------------------|
A|----x----------------------------------------------------------|
D|--3-x-3----1ó-----0--------------------------------------------|
G|--3-x-3----0-0h2----(2)-(0)------------------------------------|
B|--3-x-3----2---------------------------------------------------|
e|----x----------------------------------------------------------|

Gadd9                 Em                   C
E|--3--x-3---3--x-3---0---x-0---0---x-0--------x----------x------|
A|-----x--------x---------x---------x------3---x-----3----x------|
D|---0-x-0----0-x-0-----2-x-2-----2-x-2------2-x-2------2-x-2----|
G|---2-x-2----2-x-2-----0-x-0-----0-x-0------0-x-0------0-x-0----|
B|---0-x-0----0-x-0-----0-x-0-----0-x-0------1-x-1------1-x-1----|
e|-----x--------x---------x---------x----------x----------x------|

Iím dreaming over and over again, I know exactly where I wanna land....

Am             Gmaj7
E|-0---x-0----3--x-3---------------------------------------------|
A|-----x---------x-----------------------------------------------|
D|---2-x-2-----0-x-0---------------------------------------------|
G|---2-x-2-----2-x-2---------------------------------------------|
B|---1-x-1-----3-x-3---------------------------------------------|
e|-----x---------x-----------------------------------------------|

Chorus

   C            Bm           B7         Em          B
E|-----x-------2---x------2---x-------0---x------1---x-----------|
A|-3---x-----------x----------x-----------x----------x-----------|
D|---2-x-2-------3-x-3------4-x-4-------2-x-2------3-x-3---------|
G|---0-x-0-------4-x-4------0-x-0-------0-x-0------3-x-3---------|
B|---1-x-1-------4-x-4------4-x-0-------0-x-0------3-x-3---------|
e|-----x-----------x----------x-----------x----------x-----------|

Oh no, I donít exactly remember, how and what when wrong, but what I

    C           G                     Cadd9        Bm         
E|-----x-------3---x-----3-------------x-------2---x------------|
A|-3---x-----------x---------------3---x-----------x------------|
D|---2-x-2-------2-x-2-----2--2--------x---------3-x-3----------|
G|---0-x-0-------0-x-0-----0--0------0-x-0-------4-x-4----------|
B|---1-x-1-------0-x-0-----0--0------2-x-2-------4-x-4----------|
e|-----x-----------x-----------------2-x-2---------x------------|

                                  And Iíll be there happy after after...





    B7          Em           B           C           G (with little strum)
E|-2--x--------0---x------1---x-----------x--------3--x----------|
A|----x------------x----------x-------3---x-----------x----------|
D|--4-x-4--------2-x-2------3-x-3-------2-x-2-------2-x----------|
G|--0-x-0--------0-x-0------3-x-3-------0-x-0-------0-x----------|
B|--4-x-4--------0-x-0------3-x-3-------1-x-1-------0-x----------|
e|----x------------x----------x-----------x-----------x----------|


Couplet 2:


Gadd9                 Em                   B
E|--3--x-3---3--x-3---0---x-0---0---x-0----1---x-1----1---x-1----|
A|-----x--------x---------x---------x----------x----------x------|
D|---0-x-0----0-x-0-----2-x-2-----2-x-2------3-x-3------3-x-3----|
B|---2-x-2----2-x-2-----0-x-0-----0-x-0------3-x-3------3-x-3----|
G|---0-x-0----0-x-0-----0-x-0-----0-x-0------3-x-3------3-x-3----|
e|-----x--------x---------x---------x----------x----------x------|
[ Tab from: http://www.guitaretab.com/s/stevie-ann/102719.html ]
If I wake up in A fairytale with a lovely.....

   B            A7 (or with a little strum)
E|-1--x-1--0-----------------------------------------------------|
A|----x----------------------------------------------------------|
D|--3-x-3----1ó-----0--------------------------------------------|
G|--3-x-3----0-0h2----(2)-(0)------------------------------------|
B|--3-x-3----2---------------------------------------------------|
e|----x----------------------------------------------------------|



Gadd9                 Em                   C
E|--3--x-3---3--x-3---0---x-0---0---x-0--------x----------x------|
A|-----x--------x---------x---------x------3---x-----3----x------|
D|---0-x-0----0-x-0-----2-x-2-----2-x-2------2-x-2------2-x-2----|
G|---2-x-2----2-x-2-----0-x-0-----0-x-0------0-x-0------0-x-0----|
B|---0-x-0----0-x-0-----0-x-0-----0-x-0------1-x-1------1-x-1----|
e|-----x--------x---------x---------x----------x----------x------|

The only thing I have to do, is worry about you....


Am             Gmaj7
E|-0---x-0----3--x-3---------------------------------------------|
A|-----x---------x-----------------------------------------------|
D|---2-x-2-----0-x-0---------------------------------------------|
G|---2-x-2-----2-x-2---------------------------------------------|
B|---1-x-1-----3-x-3---------------------------------------------|
e|-----x---------x-----------------------------------------------|

Chorus

   C            Bm           B7         Em          B
E|-----x-------2---x------2---x-------0---x------1---x-----------|
A|-3---x-----------x----------x-----------x----------x-----------|
D|---2-x-2-------3-x-3------4-x-4-------2-x-2------3-x-3---------|
G|---0-x-0-------4-x-4------0-x-0-------0-x-0------3-x-3---------|
B|---1-x-1-------4-x-4------4-x-0-------0-x-0------3-x-3---------|
e|-----x-----------x----------x-----------x----------x-----------|

Oh no, I donít exactly remember, how and what when wrong, but what I



    C           G                     Cadd9        Bm         
E|-----x-------3---x-----3-------------x-------2---x------------|
A|-3---x-----------x---------------3---x-----------x------------|
D|---2-x-2-------2-x-2-----2--2--------x---------3-x-3----------|
G|---0-x-0-------0-x-0-----0--0------0-x-0-------4-x-4----------|
B|---1-x-1-------0-x-0-----0--0------2-x-2-------4-x-4----------|
e|-----x-----------x-----------------2-x-2---------x------------|

                                  And Iíll be there happy after after...


    B7          Em           B           C           G (with little strum)
E|-2--x--------0---x------1---x-----------x--------3--x----------|
A|----x------------x----------x-------3---x-----------x----------|
D|--4-x-4--------2-x-2------3-x-3-------2-x-2-------2-x----------|
G|--0-x-0--------0-x-0------3-x-3-------0-x-0-------0-x----------|
B|--4-x-4--------0-x-0------3-x-3-------1-x-1-------0-x----------|
e|----x------------x----------x-----------x-----------x----------|

Bridge

    B7                Em                        B          Am       
E|-2--x-2---2--x------0---x-0----0---x-0-----1---x-------0---x---|
A|----x--------x----------x----------x-----------x-----------x---|
D|--4-x-4----4-x-4------2-x-2------2-x-2-------3-x-3-------2-x-2-|
G|--0-x-0----0-x-0------0-x-0------0-x-0-------3-x-3-------2-x-2-|
B|--4-x-4----4-x-4------0-x-0------0-x-0-------3-x-3-------1-x-1-|
e|----x--------x----------x----------x-----------x-----------x---|

Oh, he makes me feel, like there is a whole lot of space, to feel......

   D
E|-------x-------------------------------------------------------|
A|-------x-------------------------------------------------------|
D|--0----x-------------------------------------------------------|
G|-----2-x-------------------------------------------------------|
B|-----3-x-------------------------------------------------------|
e|-----2-x-------------------------------------------------------|


Chorus

   C            Bm           B7         Em          B
E|-----x-------2---x------2---x-------0---x------1---x-----------|
A|-3---x-----------x----------x-----------x----------x-----------|
D|---2-x-2-------3-x-3------4-x-4-------2-x-2------3-x-3---------|
G|---0-x-0-------4-x-4------0-x-0-------0-x-0------3-x-3---------|
B|---1-x-1-------4-x-4------4-x-0-------0-x-0------3-x-3---------|
e|-----x-----------x----------x-----------x----------x-----------|

Oh no, I donít exactly remember, how and what when wrong, but what I

    C           G                     Cadd9        Bm         
E|-----x-------3---x-----3-------------x-------2---x------------|
A|-3---x-----------x---------------3---x-----------x------------|
D|---2-x-2-------2-x-2-----2--2--------x---------3-x-3----------|
G|---0-x-0-------0-x-0-----0--0------0-x-0-------4-x-4----------|
B|---1-x-1-------0-x-0-----0--0------2-x-2-------4-x-4----------|
e|-----x-----------x-----------------2-x-2---------x------------|

                                  And Iíll be there happy after after...





    B7          Em           B           C           G (with little strum)
E|-2--x--------0---x------1---x-----------x--------3--x----------|
A|----x------------x----------x-------3---x-----------x----------|
D|--4-x-4--------2-x-2------3-x-3-------2-x-2-------2-x----------|
G|--0-x-0--------0-x-0------3-x-3-------0-x-0-------0-x----------|
B|--4-x-4--------0-x-0------3-x-3-------1-x-1-------0-x----------|
e|----x------------x----------x-----------x-----------x----------|



| /  slide up
| \  slide down
| h  hammer-on
| p  pull-off
| ~  vibrato
| +  harmonic
| x  Mute note
Related for The Poetry Man tab