Song name
# A B C D E F G H I J K L M N O P Q R S T U V W X Y Z

Stevie Hoang - Ill Be Fine tab

-------------------------------------------------------------------------------
                           I'LL BE FINE - Stevie Hoang
-------------------------------------------------------------------------------
First Submitted: October 17th 2010

Tabbed by: Wayne S
Tuning: Standard EADGBE

Capo: 0

Am: 002210
F: 133211
C: 032010
G: 320033

Fairly simple song that just uses a very basic four chord progression of four 
basic chords, Am, F, C, G.

The opening loop of the intro actually starts off an octave higher than the normal 
intro. If you choose
to play that, then it is as follows (either play the capo 5 version, then remove 
it for the remainder
of the song, or just play the version tabbed up around the 10th fret).

As with many other pop/RnB songs these days, the intro seems to be looped 
throughout the entire song, so
it can be pretty much played throughout the whole song.

Am -> [1]
F -> [2]
C -> [3]
G -> [4]

[Opening Loop of the Intro]:

e|8-0-7---8-7-----8---7---8-10-12-13-12-------10-12-13-12----------------10-8-7--|
B|------8-----8---------8------------------13-------------13-15----12-----------8|
G|--------------5---5-------------------12----------------------12----12---------|
D|-----------------------------------10------------------------------------------|
A|0---------------8------------------------------------------14------------------|
E|-------------------------------------------------------------------------------|

[Capo 5 version of the above intro, relative to capo]:

e|3---2---3-2-----3---2---3-5-7-8-7---3-5-7-8-7-3-5---2---5-3-2--------------|
B|--0---3-----3---------3-----------3---------------3---3-------3------------|
G|--------------0---0-------------0------------------------------------------|
D|2-----------------------------------------------4--------------------------|
A|----------------3----------------------------------------------------------|
E|---------------------------------------------------------------------------|


[Intro/Looped throughout the song]:

e|----------------------------0-1-0-------0-1-0------------------------------|
B|1---0---1-0-----1---0---1-3---------1-3-------1-3---0---3-1-0--------------|
G|------0-----0---------0-----------0---------------0---0-------0------------|
D|--2------------------------------------------------------------------------|
A|0-------------3---3-------------3---------------2--------------------------|
E|----------------1----------------------------------------------------------|
 [1]             [2]             [3]             [4]


                                [1]               [2]                 [3]
It's better if we don't speak at all, all, all (at all, all, all), (at all, all, all)
    [4]                         [1]               [2]                 [3]
It's better if we don't speak at all, all, all (at all, all, all), (at all, 
              [4]
all, all), (at all, all, all)

[Verse 1]:

    Am
Now deep down inside
              F
(You know) it cuts like a knife
C                      G
  But I'm too proud to show it
Am
Pain in my chest (it feels)
     F
Like I lost my breath
C                      G
  But she just doesn't know it
Am                             F
So many things (that I'm) just dying to say
C                     G
  But I can't seem to tell her

[Hook?]:

Am                              F
It's killing me, (to know) that she wants to leave
C                   G
  But I'm not gonna beg her to stay (no)


[Pre-Chorus]:

Am                    F                    
  Cause I got my pride, I'm not gonna cry (cry)
C                   G                        (Am)
  There won't be no tears falling from these eyes
Am                     F
  Don't need her to see, that it's killing me
C                      G
  So this is what I'll say



[Chorus]:

                  Am
You don't have to worry about me
      F
Girl, I'll be fine
                  C
You don't have to call me again
      G
Girl, it's alright
                  Am                 F
You don't have to ask me if I will be okay
              C
Girl, I'll be fine
              G
Girl, I'll be fine

                 Am                  F
You ain't got to tell me that we can still be friends
                C               G
You ain't gotta make no excuses and pretend
              Am                 F
Cause I'll be fine, said I'll be fine
                  C
Theres no need to call
     G                           Am                F                   C
It's better if we don't speak at all, all, all (at all, all, all), (at all, all, all)
     G                           Am                F                   C
It's better if we don't speak at all, all, all (at all, all, all), (at all, 
               G
all, all), (at all, all, all)

[Verse 2]:

    Am                    F
Now I can't believe, that I fell so deep
      C                   G
(And I) I let my heart so open
    Am              F
Now I gotta try, to keep it inside
           C                    G
(These words) are better left unspoken (cause I)



[Repeat Pre-Chorus]


[Repeat Chorus]



e|----------------------------0-1-0-------0-1-0------------------------------|
B|1---0---1-0-----1---0---1-3---------1-3-------1-3---0---3-1-0--------------|
G|------0-----0---------0-----------0---------------0---0-------0------------|
D|--2------------------------------------------------------------------------|
A|0-------------3---3-------------3---------------2--------------------------|
E|----------------1----------------------------------------------------------|
 [1]             [2]             [3]             [4]

            [1]
Girl I'll be fine
            [2]
Said I'll be fine
                  [3]
There's no need to call
    [4]                          Am
It's better if we don't speak at all
Tap to rate this tab
 
# A B C D E F G H I J K L M N O P Q R S T U V W X Y Z