Song name
# A B C D E F G H I J K L M N O P Q R S T U V W X Y Z

Stevie Wonder - I Wish tab

The Tab you have all been waiting for! Well maybe not, but I have. This is the main 
riff in 'In wish'. Took me an age to work out. Hope you enjoy!

e|-------------------------------------------------------------------------|
B|----9s11--9s11--9--------------------------------------------------------|
G|-------------------11--8-------11s13-11s13--11---------------------------|
D|--------------------------11-------------------13--11------11s13--11-----|
A|-------------------------------------------------------13----------------|
E|-------------------------------------------------------------------------|

e|-------------------------------------------------------------------------|
B|-------------------------------------------------------------------------|
G|-------------------------------------------------------------------------|
D|-------11----------------------------------------------------------------|
A|---13------13---11--9--11---9--------------------------------------------|
E|-------------------------------11--11------------------------------------|


If you have any questions or compliments about the tab feel free to e-mail me at: chordman12@hotmail.co.uk

Thanks

Ben =)
Tap to rate this tab
 
# A B C D E F G H I J K L M N O P Q R S T U V W X Y Z