Song name
# A B C D E F G H I J K L M N O P Q R S T U V W X Y Z

Stevie Wonder - Overjoyed chords

Highlighted       Show chord diagrams
    ____________________
   / Stevie Wonder     /
  / Overjoyed         /
 / In Square Circle  /
/___________________/


 Intro:
(This piano part just happens to suit guitar very well.)
  Db6               C7                Bmaj7             C7
|-----------------|-----------------|-----------------|-----------------|
|-----------------|-----------------|-----------------|-----------------|
|-3---------3-----|-3---------3-----|-3---------3-----|-3-------------3-|
|-3-----3---------|-2-----2---------|-1-----1---------|-2-----2---4-6---|
|-4---4---------4-|-3---3---------3-|-2---2---------2-|-3---3-----------|
|-----------------|-----------------|-----------------|-----------------|

  Db6               C7                Bmaj7             Bb
|-----------------|-----------------|-----------------|-----------------|
|-----------------|-----------------|-----------------|-------3-------4-|
|-3---------3-----|-3---------3-----|-3---------3-----|-----------3-----|
|-3-----3---------|-2-----2---------|-1-----1-------0-|-----------------|
|-4---4---------4-|-3---3---------3-|-2---2-----------|-1---------------|
|-----------------|-----------------|-----------------|-----------------|



 Verse:
| Eb(add9) | Cm7 | Fm7 | Bb7 |

| Eb(add9) | Cm7 | F/A | G/B |

| C | G/B | Cm7  F7 | Bb7 |



 Verse


 Chorus:
| Abmaj7 | Gm7 | Fm7  Bb7 | Dbmaj7  C7 |

| Bbmaj7 | F/A  Bb/Ab | Fm7 | Bb7 |



 Intro

 Verse

 Chorus + | C7sus4 | C7 |


 Chorus:
| Bbmaj7 | Am7 | Gm7  C7 | Ebmaj7  D7 |

| Cmaj7 | G/B  C/Bb | Gm7 | C7 |

| F | Gbmaj7 (Gbmaj7-Fmaj7-Emaj7) | Emaj7 | F6  Bb7 |

| Eb(add9) ...



 LYRICS
**********
Over time, I've building my castle of love
Just for two, though you never knew you were my reason
I've gone much too far for you now to say
That I've got to throw my castle away

Over dreams, I have picked out a perfect come true
Though you never knew it was of you I've been dreaming
The sandman has come from too far away
For you to say: "Come back some other day."

And though you don't believe that they do
They do come true
For did my dreams
Come true when I looked at you
And maybe too, if you would believe
You too might be
Overjoyed, over loved, over me

Over hearts, I have painfully turned every stone
Just to find, I had found what I've searched to discover
I've come much too far for me now to find
The love that I've sought can never be mine

And though you don't believe that they do
They do come true
For did my dreams
Come true when I looked at you
And maybe too, if you would believe
You too might be
Overjoyed, over loved, over me

And though the odds say improbable 
What do they know
For in romance
All true love needs is a chance
And maybe with a chance you will find
You too like I
Overjoyed, over loved, over you, over you


Jon Sebastian Frederiksen - 1st /March /10
Just mail me at Maitinin@gmail.com with questions, comments and corrections!
Tap to rate this tab
 
# A B C D E F G H I J K L M N O P Q R S T U V W X Y Z