Song name
# A B C D E F G H I J K L M N O P Q R S T U V W X Y Z

Stick Figure - So Good tab

"So Good" by Stick Figure a.k.a. Scott Woodruff
Sick song with the melody taken from Gary Jules song "Mad World."
I believe this is the first Stick Figure tab which is sad since Stick Figure is amazing.
This is my first tab so if you notice anything wrong comment...
I know for a fact that the all the notes in this tab are the right ones because it is 
in Fm.
It's a pretty simple tab. No solo.
Enjoy

|  \= slide
|  p= pull offf

Intro/Bass Riff:

E|------------------------------------|
B|------------------------------------|
G|------------------------------------|
D|------------------8---------8-8-----|
A|-6-6\8---8-8-8\11---10---10---------|
E|------------------------------------|

Verse:

   Fm   Ab   Eb    Bbm
E|-8----4----11----6-|
B|-9----4----11----6-|
G|-10---5----12----6-|
D|-10---6----13----8-|
A|-8----6----13----8-|
E|-x----4----11----6-|

Chorus:
Fm, Bb

vocals on guitar:

E|-----------------------------------------------------|
B|-----------------------------------------------------|
G|-----------------------------------------------------|
D|---------------10-10-10----8-8-8----8-8-8-8-6p5------|
A|-8-8-11-11-8-8----------11-------10-------------8----|
E|-----------------------------------------------------|

END.
http://www.stickfiguremusic.com/
Tap to rate this tab
# A B C D E F G H I J K L M N O P Q R S T U V W X Y Z