Song name
# A B C D E F G H I J K L M N O P Q R S T U V W X Y Z

Stickle Bricks - With You tab

Stickle bricks
"with you"

Standard tunning
This song is Still in creation is only power chords.

Intro
Play x2
e--------------------------------------------------------------|
B--------------------------------------------------------------|
G--------------------------------------------------------------|
D--------------------------------------------------------------|
A------12---12---12---12---12---12---7---7---7---5---5---5-----|
E----10---10---10----0----0----0----9---9---9---7---7---7------|

Verse
Play x4
e--------------------------------------------------------------|
B--------------------------------------------------------------|
G--------------------------------------------------------------|
D--------------------------------------------------------------|
A---12---12---12---12---12---12---7---7---7---5---5---5--------|
E---10---10---10---0----0----0----9---9---9---7---7---7--------|
sounds better if you palm and slide.

Chorous
Play x3
same as verse but full strum and at end of chorous end on 4and6
Tap to rate this tab
# A B C D E F G H I J K L M N O P Q R S T U V W X Y Z