Song name
# A B C D E F G H I J K L M N O P Q R S T U V W X Y Z

Still Pending - Argus tab

e---------------------------------------|
B---------------------------------------|
G--7-7-7-7--7-7-7-7--4-4-4-4--2-2-2-2---|
D--7-7-7-7--7-7-7-7--4-4-4-4--2-2-2-2---|
A--5-5-5-5--4-4-4-4--2-2-2-2--0-0-0-0---|
E---------------------------------------|

The worst part is yet to come..


e--2-------3-------2---------------|
B--3-( X8)--3--------3-( X8)-------|
G--2-------0-( X8)---2-------------|
D----------0--------------5--------|
A----------2--------------5--------|
E----------3--------------3--------|

Sing to the unsteady beat...
Tap to rate this tab
 
# A B C D E F G H I J K L M N O P Q R S T U V W X Y Z