Song name
# A B C D E F G H I J K L M N O P Q R S T U V W X Y Z

Stills - Mountain tab

This is another great song off without feathers by the stills. A lot of it is piano, but 
have given the chords that are played on piano for guitar. Just listen to the song and 
get it.

INTRO
A D A
A Bm A    X2

Verse

        A                  D       A
We took fifteen steps, But fifteen wrong
        A                  F#m   A
Through packs of wolves, and wild dogs

e-|------------------------------------|
B-|--5-----------7---------------------|
G-|--6---6-------7---------------------|
D-|--7-----7-----7---------------------|
A-|--7------9----5---------------------|
E-|--5-----------5---------------------|

    Wait, we've been told to

e-|------------------------------------|
B-|--5-----------7---------------------|
G-|--6---6-------7---------------------|
D-|--7-----7-----7---------------------|
A-|--7------9----5---------------------|
E-|--5-----------5---------------------|

    Wait, we've been told to


Bridge/Fill (at about 1:01)

e-|---------------------------------------|
B-|--5----10x-9x10-5----------------------|
G-|--6----11x-9x11-6----------------------|
D-|--7----12x11x12-7----------------------|
A-|--7----12x11x12-7----------------------|
E-|--5-------------5----------------------|

e-|---------------------------------------|
B-|--2-----3x-2x-3--2---------------------|
G-|--2-----4x-2x-4--2---------------------|
D-|--4-----4x-2x-4--2---------------------|
A-|--4-----2x-0x-2--0---------------------|
E-|--2------------------------------------|


2nd Verse

  A
A house turns to rust, and power is lost

    F#m                         D            A
Your hands are clean, but these diamonds are soft

       A                D
I said Wait, we've been told to


e-|------------------------------------|
B-|--5-----------7---------------------|
G-|--6---6-------7---------------------|
D-|--7-----7-----7---------------------|
A-|--7------9----5---------------------|
E-|--5-----------5---------------------|

    Wait, we've been told to


Chorus

e-|-----------------------------------------|
B-|-----------------------------------------|
G-|-----------------------------------------|
D-|-----------------------------------------|
A-|-----------------------------------------|
E-|-5-5-5-5-7-7-7-7-9-9-9-9-12-12-12-12-----|

e-|-----------------------------------------|
B-|-----------------------------------------|
G-|-----------------------------------------|
D-|---------------------------------9b10br--|
A-|---------------------------10-12---------|
E-|-10-10-10-10-10-10-10-10-12--------------|


e-|-----------------------------------------|
B-|-----------------------------------------|
G-|-----------------------------------------|
D-|-----------------------------------------|
A-|-----------------------------------------|
E-|-5-5-5-5-7-7-7-7-9-9-9-9-12-12-12-12-----|

e-|---------------------------------------|
B-|--------------------------13b-----12b--|
G-|---------------------------------------|
D-|---------------------------------------|
A-|---------------------------------------|
E-|-10-10-10-10-10-10-10-10---------------|

e-|---------------------------------------|
B-|---------------------------------------|
G-|---------------------------------------|
D-|---------------------------------------|
A-|---------------------------------------|
E-|-5-5-5-5-7-7-7-7-9-9-9-9-12-12-12-12---|


e-|--------------------------------------------------|
B-|--------------------------------------------------|
G-|--------------------------------------------------|
D-|--------------------------------------------------|
A-|--------------------------------------------------|
E-|-10-10-10-10-10-10-10-10-10-10-10-10-10-10-10-5~--|


3rd Chorus (no guitar)

The hammers were quiet, nailing me to the wall
I've been hanging here, all night long


SOLO


e-|---------------------------------------------------|
B-|---------------------------------------------------|
G-|--9~--9------------9~--9---------------------------|
D-|--------11---12---------11---12~--12h13-12h13r12---|
A-|-----------9---------------9-----------------------|
E-|---------------------------------------------------|

Pre-Chorus


A                D
Wait, we've been told to


e-|------------------------------------|
B-|--5-----------7---------------------|
G-|--6---6-------7---------------------|
D-|--7-----7-----7---------------------|
A-|--7------9----5---------------------|
E-|--5-----------5---------------------|

    Wait, we've been told to


Chorus


e-|---------------------------------------|
B-|---------------------------------------|
G-|---------------------------------------|
D-|---------------------------------------|
A-|---------------------------------------|
E-|-5-5-5-5-7-7-7-7-9-9-9-9-12-12-12-12---|

e-|-----------------------------------------|
B-|-----------------------------------------|
G-|-----------------------------------------|
D-|---------------------------------9b10br--|
A-|---------------------------10-12---------|
E-|-10-10-10-10-10-10-10-10-12--------------|

e-|---------------------------------------|
B-|---------------------------------------|
G-|---------------------------------------|
D-|---------------------------------------|
A-|---------------------------------------|
E-|-5-5-5-5-7-7-7-7-9-9-9-9-12-12-12-12---|

e-|------------------------12-12-12-12-12-12-12-12-|
B-|------------------------------------------------|
G-|------------------------------------------------|
D-|------------------------------------------------|
A-|------------------------------------------------|
E-|-10-10-10-10-10-10-10-10------------------------|

e-|---------------------------------------|
B-|---------------------------------------|
G-|---------------------------------------|
D-|---------------------------------------|
A-|---------------------------------------|
E-|-5-5-5-5-7-7-7-7-9-9-9-9-12-12-12-12---|

e-|-----------------------------------------|
B-|-----------------------------------------|
G-|-----------------------------------------|
D-|-------------------------10b--10-9-------|
A-|-----------------------------------12----|
E-|-10-10-10-10-10-10-10-10-----------------|

e-|---------------------------------------|
B-|---------------------------------------|
G-|---------------------------------------|
D-|---------------------------------------|
A-|---------------------------------------|
E-|-5-5-5-5-7-7-7-7-9-9-9-9-12-12-12-12---|

e-|-------------------------------------------------|
B-|-------------------------------------------------|
G-|------------------------------9---9--9---11bh9---|
D-|-------------------------9-12---12-12-12---------|
A-|-------------------------------------------------|
E-|-10-10-10-10-10-10-10-10-------------------------|


After that I am not sure, because this song has sort of a while ending. Just use D major 
or a B pentatonic. This song is in the key of D, so if you want to figure out those 
on the piano at the end, that should help you. Thanks for your time....
RBSP!
Tap to rate this tab
# A B C D E F G H I J K L M N O P Q R S T U V W X Y Z