Song name
# A B C D E F G H I J K L M N O P Q R S T U V W X Y Z

Stillwater - Love Thing tab

#----------------------------------PLEASE NOTE------------------------------
#This file is the author's own work and represents their interpretation of the
#song. You may only use this file for private study, scholarship, or research.#
#---------------------------------------------------------------------------
#-- File created with Instab - http://www.pconline.com/~smcarey/instab.html --#
#---------------------------------------------------------------------------

Author/Artist: Stillwater
Title: Love Thing
Album: Stillwater
Transcribed by: Rick Posey
Email: rick@giventowail.com


  hey guys, i did NOT write this tab, i got it from www.giventowail.com, but it should 
it easier for people to find on ultimate guitar
  good luck

Intro/Verse:
-|--------------------------------------------------------------------------|
-|-------------------------------8--8---7-(5)(7b)(7b)-----------------------|
-|----------5------------7p5-----7--7---7--5--7b--7b-p5----5----------------|
-|--/-7--7--5--5--7--7---7p5--7--0--0---0--5--7b--7b-p5-7--5----------------|
-|--/-7--7--------7--7--------7-------------------------7-------------------|
-|--------------------------------------------------------------------------|

Chorus:
-|--------------------------------------------------------------------------|
-|-------3-------3-----------3------3---------3-----3-----------------------|
-|-------2-------2-----------2------2---------2-----2----5--5-----------/---|
-|-------0-------0-----------0------0---------0-----0----5--5----5---5--/---|
-|---3b------3b----------3b-----3b---------3b----3b------3--2----5---5------|
-|---------------------------------------------------------------2---3------|


-|--------------------2---3-------------------------------------------------|
-|--------------------3---3-----------------3---3---------------------------|
-|----2---2---5-------2---0----2---2---5----2---0--------------2---2---5----|
-|----2---2---5--\----0---0----2---2---5----0---0--------------2---2---5----|
-|----0---0---3--\-------------0---0---3--------------------3--0---0---3----|
-|--------------------2---3-----------------2---3--0--2--3------------------|


-|--------------------------------------------------------------------------|
-|--3---3-------------------------------------------------------------------|
-|--2---0-------------------------------------------------------------------|
-|--0---0-------------------------------------------------------------------|
-|--x---x-------------------------------------------------------------------|
-|--2---3-------------------------------------------------------------------|

Bridge:
-|------------------------------|-|--0---0-0-0-------------------------------|
-|---------7--8----------7--8---|-|--5---5-5-5/7--7/8---5--5-5-5-5/7-3--3----|
-|------5-----7--------5----7---|-|--0---0-0-0-0--0-0---0--0-0-0-0-0-0--0----|
-|--/7--------0-----/7------0---|-|--2---2-2-2/4--4/5---2--2-2-2-2/4-x--x----|
-|------------------------------|-|--3---3-3-3/5--5/7---3--3-3-3-3/5-2--2----|
-|------------------------------|-|------------------------------------------|
                                    4x w/ solo 1

-|--------------------------------------------------------------------------|
--  5--5-5--5---5----5--5-5--5-----5-5-5-5----------------------------------|
-|--0--0-0--0---0----0--0-0--0-----0-0-0-0----------------------------------|
-|--2--2-2--2---2----2--2-2--2-----2-2-2-2----------------------------------|
-|--3--3-3--3---3----3--3-3--3-----3-3-3-3----------------------------------|
-|--------------------------------------------------------------------------|
   "you'll never know.."                    back into verse riff

Solo 1:
-|------------------------------7---5----------------15---------------------|
-|---10vv------8h10p8----7h8------------8--10--7--------15---10--12--13-----|
-|--------------------------------------------------------------------------|
-|--------------------------------------------------------------------------|
-|--------------------------------------------------------------------------|
-|--------------------------------------------------------------------------|
Mail Solo (w/ 2nd part of chorus):
-|-----------------------5---------------------------------------------------|
-|--x-------------8b10-----8-8--5--------------------------------------------|
-|-x--\--x-----------------------7-5-7-7b9r7-5-7vvb--r7p5---7--5vv-----------|
-|--x--\--x------------------------------------------------7--------7vv-7--5-|
-|-----\--x------------------------------------------------------------------|
-|---------------------------------------------------------------------------|
    pick scrape

-|--------------------------------------------------------------------------|
-|--------------------------8-8-8-8-8-8-8-8-------15br----13-15-13----------|
-|--------------------------9-9-9-9-9-9-9-9------------14----------14--/19b-|
-|-  -----------------------------------------------------------------------|
-|-7--5--5--3--5--5b--3v/---------------------------------------------------|
-|--------------------------------------------12\---------------------------|
                            tremolo pickin'

-|----17----------------17-------------------------------------|-------------|
-|-17----20b--20b--20b-----20-17----17----17-------------------|-------------|
-|-------------------------------19----19----19b20r19-17--19b--|--2--2--2----|
-|-------------------------------------------------------------|--2--2--2----|
-|-------------------------------------------------------------|--0--0--0----|
-|-------------------------------------------------------------|-------------|


-|------5---------------------------------------------------------17--------|
-|----5- -8b-8r-5----------------------------------------------17----20-----|
-|-7b-------------7b-p5--------------------------2----5---/19b--------------|
-|----------------------7------------------------2----5---------------------|
-|-------------------------7--5-----------5------0----3---------------------|
-|-------------------------------8--5--8-----5------------------------------|


-|-20b22-r20--17-20-17\-------------20b22r20p17----17-20-17------------------|
-|----------------------------------------------20----------20--20b22--20--2-|
-|------------------------2-2-2--5-------------------------------------------|
-|------------------------2-2-2--5-------------------------------------------|
-|--- --------------------0-0-0--3-------------------------------------------|
-|---------------------------------------------------------------------------|


-|-------------------------------2---3--------------------------------------|
-|-20----------------------------x---3--------3-----------------------------|
-|-19b21-\----2---5----2---------2---0----2---0---------------------2-------|
-|------------2---5----0---5-----0---0----0---0---------------------2-------|
-|------------0---3----x---5-----x---x----x---x-------0--0--3b--0---0-------|
-|---------------------2---3-----2---3----2---3--0--3-----------------------|
Tap to rate this tab
# A B C D E F G H I J K L M N O P Q R S T U V W X Y Z