Guitaretab - guitar tabs
Song name
# A B C D E F G H I J K L M N O P Q R S T U V W X Y Z

Sting - Saint Agnes And The Burning Train tab

Sting
Saint Agnes And The Burning Train

Intro:
Am
e|-7-8-7|7-8-7|7-8-7-5-7-8|8h7-4-5|
B|------|-----|-----------|-------|
G|------|-----|-----------|-------|
D|------|-----|-----------|-------|	
A|------|-----|-----------|-------|
E|------|-----|-----------|-------|

e|-5-7-5|5-7-5|5-7-5--------|-----|
B|------|-----|------4/5-7-8|7-5-7| 
G|------|-----|-------------|-----|
D|------|-----|-------------|-----|	x2
A|------|-----|-------------|-----|
E|------|-----|-------------|-----|

e--------|-------|------|-----|-----|
B-7/8/7/5|7-5-7-8|7-8-10|8h7-5|4-5-7|
G--------|-------|------|-----|-----|
D--------|-------|------|-----|-----|
A--------|-------|------|-----|-----|
E--------|-------|------|-----|-----|
[ Tab from: http://www.guitaretab.com/s/sting/115737.html ]
e|--------|-------|------|-----|-------|
B|-7/8/7-5|7-5-7-8|7-8-10|8h7-5|5/7-4-0|
G|--------|-------|------|-----|-------|
D|--------|-------|------|-----|-------|
A|--------|-------|------|-----|-------|
E|--------|-------|------|-----|-------|

Intro + B|-7-8-7-5-7| x2

e|-7-7-----|------|-----|-----|-----|
B|----5-7-8|7-8-10|8h7-5|4-5-7|-----|
G|---------|------|-----|-----|4-4-2|
D|---------|------|-----|-----|-----|
A|---------|------|-----|-----|-----|
E|---------|------|-----|-----|-----|

e|--------|------|-----|---------|---|---|
B|-7-5-7-8|7-8-10|8h7-5|5/4/3/1h0|---|---|
G|--------|------|-----|---------|5-4|5-4|
D|--------|------|-----|---------|---|---|
A|--------|------|-----|---------|---|---|
E|--------|------|-----|---------|---|---|

e|-----|------------|---------3-2|
B|-----|5-5-5-3-5-1-|------3-1---|
G|-4-0-|-----------2|-0-2-5------|
D|----2|------------|4-----------|
A|-----|------------|------------|
E|-----|------------|------------|

Intro + B|-5|
Outro   B|5/4/3/1h0 x4 (last time slowly)	Av: André (Mr.Macrew) 
Related for Saint Agnes And The Burning Train tab
×
Best way to learn
"Saint Agnes And The Burning Train"