Song name
# A B C D E F G H I J K L M N O P Q R S T U V W X Y Z

Sting - Fragile tab

I made a few changes in the principal chords, I think it sounds better than Luis tab, the solo is the same, althoug it is not right at all, it is easy to get, try to. The changes I made where based on All this time DVD.

If you find any mistake, plz let me know. deutscherweisse@hotmail.com

Fragile  -  Sting  from "Nothing Like The Sun" album
                   Transcription: Diego Ru?z


Part I (Intro):

e------7p5--5h7--I-----7p5--5h7--7p5--5h7--7p5h7\0--I---
B---5------------I--5-------------------------------I---
G----------------I----------------------------------I---
D----------------I----------------------------------I---
A----------------I----------------------------------I---
E----------------I----------------------------------I---


e------7p5--5h7--I-----7p5--5h7--7p5--5h7--I---
B---5------------I--5----------------------I---
G----------------I-------------------------I---
D----------------I-------------------------I---
A----------------I-------------------------I---
E----------------I-------------------------I---



Part II:

e----------------------------I------------------------------I---
B---12---------10-----8--8---I--12--12-----8--------7--5--5-I---
G----------------------------I------------------------------I---
D---12-----10---------9--9---I--12--12-----9-----7-----5--5-I---
A----------------------------I----------0-----0--------0--0-I---
E----0--0-------------0--0---I---0---0----------------------I---


e-----------------------------------I--------------------I---
B---8--8--8--------7----------------I--7------5----8--8--I---
G-----------------------9--9--8--8--I--------------------I---
D---9--9--9-----7-------------------I--7-----5-----9--9--I---
A---0--0-------------10--10---9--9--I--------------------I---
E---------7--7--------7---7---7--7--I--0--0--------0--0--I---


e-------(12)-----------------------I--------------------------I---
B---12-------12---------10--8--8---I--12--12--8--------7--5--5I---
G----------------------------------I--------------------------I---
D---12-------12-----10------9--9---I--12--12--9-----7-----5--5I---
A----------------------------------I----------0--0--------0--0I---
E----0--------0--0----------0--0---I---0---0------------------I---


e-----------------------------------I--------------------I---
B---8--8--8--------7----------------I--7------8----5-----I---
G-----------------------9--9--8--8--I--------------------I---
D---9--9--9-----7-------------------I--7-----9-----5-----I---
A---0--0-------------10--10---9--9--I--------------------I---
E---------7--7--------7---7---7--7--I--0--0--------0-----I---



{ Play part II again once for each of the following verses: }

If blood will flow when flesh and steel are one
Drying in the colour of the evening sun
Tomorrow's rain will wash the stains away
But something in our minds will always stay

Perhaps this final act was meant to clinch a lifetime's argument
That nothing comes from violence and nothing ever could
For all those born beneath an angry star
Lest we forget how fragile we are



Part III:

{ Lyrics for this part: }

On and on the rain will fall
Like tears from a star   like tears from a star
On and on the rain will say
How fragile we are   how fragile we are


e------------------------I-----------------I--------------------------I---
B---10---------8--10-----I--8--------7--8--I-------8--8--7--7--5-----5I---
G------------------------I-----------------I--------------------------I---
D---10------9-----10-----I--9-----7-----9--I-----9----9--7--7--5--5---I---
A----8---8---------8-----I-----------------I--------------------------I---
E------------------------I--7--7--------7--I--7-------7--0--0--0------I---


e----------------------I---
B---7--8--7--7--5--7--8I---
G----------------------I---
D---7--9--7--7--5------I---
A----------------------I---
E---0--0--0--0--0------I---
e------------------------I-----------------I--------------------------I---
B---10---------8--10-----I--8--------7--8--I-------8--8--7--7--5-----5I---
G------------------------I-----------------I--------------------------I---
D---10------9-----10-----I--9-----7-----9--I-----9----9--7--7--5--5---I---
A----8---8---------8-----I-----------------I--------------------------I---
E------------------------I--7--7--------7--I--7-------7--0--0--0------I---


e------------------I---
B---7--8--7--7--5--I---
G------------------I---
D---7--9--7--7--5--I---
A------------------I---
E---0--0--0--0--0--I---



Part IV (Solo):

e------7p5--5h7---I-----7p5--5--7--8--10--7--7\0--I----------------------I---
B---5-------------I--5----------------------------I--8--5--7--8--5--7\0--I---
G-----------------I-------------------------------I----------------------I---
D-----------------I-------------------------------I----------------------I---
A-----------------I-------------------------------I----------------------I---
E-----------------I-------------------------------I----------------------I---


e------------5--7--8--10--7--8--5--7-----5--7\0--I---
B---5--7--8---------------------------8----------I---
G------------------------------------------------I---
D------------------------------------------------I---
A------------------------------------------------I---
E------------------------------------------------I---


e-------12--14--15--15--14--12--I--14--15--14--14--12\11------I---
B---12--------------------------I-------------------------12--I---
G-------------------------------I-----------------------------I---
D-------------------------------I-----------------------------I---
A-------------------------------I-----------------------------I---
E-------------------------------I-----------------------------I---


e---12\11------12--I-----I---
B----------12------I-5---I---
G------------------I-----I---
D------------------I-----I---
A------------------I-----I---
E------------------I-----I---


e-------7---5---7---8---7---5-------I-----------------5---7---5-------------I--
B---5---------------------------8---I-7---5---7---8---------------8---7---5-I--
G-----------------------------------I---------------------------------------I--
D-----------------------------------I---------------------------------------I--
A-----------------------------------I---------------------------------------I--
E-----------------------------------I---------------------------------------I--


e---------------5---5\0---I---------3---2---2/3\2---I----7---5---7---8---7---I-
B---5---7---8-------------I-----5-------------------I-5----------------------I-
G-------------------------I-4-----------------------I------------------------I-
D-------------------------I-------------------------I------------------------I-
A-------------------------I-------------------------I------------------------I-
E-------------------------I-------------------------I------------------------I-

(Use your thumb on this part)
e---8---8---8---7---7---5---5-----------------------I---
B-------------------------------8---8---7---5---7---I---
G---------------------------------------------------I---
D---------------------------------------------------I---
A---------------------------------------------------I---
E---------------------------------------------------I---


e-------7---5---7---8---7---5-----------I-------------------------------I---
B---5---------------------------8---7---I---8---7---8---7---8---7---5---I---
G---------------------------------------I-------------------------------I---
D---------------------------------------I-------------------------------I---
A---------------------------------------I-------------------------------I---
E---------------------------------------I-------------------------------I---



Part V:

{ Lyrics for this part: }

On and on the rain will fall
Like tears from a star   like tears from a star
On and on the rain will say
How fragile we are   how fragile we are
How fragile we are   how fragile we are


e------------------------I-----------------I--------------------------I---
B---10---------8--10-----I--8--------7--8--I-------8--8--7--7--5-----5I---
G------------------------I-----------------I--------------------------I---
D---10------9-----10-----I--9-----7-----9--I-----9----9--7--7--5--5---I---
A----8---8---------8-----I-----------------I--------------------------I---
E------------------------I--7--7--------7--I--7-------7--0--0--0------I---


e----------------------I---
B---7--8--7--7--5--7--8I---
G----------------------I---
D---7--9--7--7--5------I---
A----------------------I---
E---0--0--0--0--0------I---


e------------------------I--------------------I-----------------------I---
B---10--10--10--------8--I--8--8--8--------7--I--8--7--7--5--5-----5--I---
G------------------------I--------------------I-----------------------I---
D---10--10--10-----9-----I--9--9--9-----7-----I--9--7--7--5--5--5-----I---
A----0---0---0-----------I--------------------I-----------------------I---
E---------------7--------I--7--7--7--7--------I--0--0--0--0--0--------I---


e--------------------------I---
B---7--8--7--7--5--5-----5-I---
G--------------------------I---
D---7--9--7--7--5--5--5----I---
A--------------------------I---
E---0--0--0--0--0--0-------I---


e--------------------7------I-------------------I---
B---7--8--7--7--5----5----5-I--7--8--7--7--5--5-I---    Play these last two bits again
G-------------------------5-I-------------------I---  6 times, singing ( fading ):
D---7--9--7--7--5--5----5---I--7--9--7--7--5--5-I---    "how fragile we are"
A---------------------------I-------------------I---
E---0--0--0--0--0-----------I--0--0--0--0--0--0-I---



Part VI:

e------7p5--5h7--I-----7p5--5h7--7p5--5h7/12--I-----7p5--5h7--I---
B---5------------I--5-------------------------I--5------------I---
G----------------I----------------------------I---------------I---
D----------------I----------------------------I---------------I---
A----------------I----------------------------I---------------I---
E----------------I----------------------------I---------------I---

                                -> Play this as fast as you can
e----------------------------I--------------------------------------I---
B----------------------------I--------------------------------------I---
G---4--5-----4---------------I--------------------------------------I---
D---------7-----5--7--4--5---I-----4--5-----4--5--7--4--5--7--4--5--I---
A----------------------------I--7--------7--------------------------I---
E----------------------------I--------------------------------------I---

                                                             until here <-
e---------------------------------------I-----------------------------------I--
B---------------------------------------I-----------------------------------I--
G---------------------------------------I--------------------------------4--I--
D------4--5-----4--5-----4--5-----4--5--I-----4--5-----4--5-----4--5--7-----I--
A---7--------7--------7--------7--------I--7--------7--------7--------------I--
E---------------------------------------I-----------------------------------I--


e------7p5--5h7--I--(12)--I---
B---5------------I--------I---
G----------------I--------I---
D----------------I--------I---
A----------------I--------I---
E----------------I--(12)--I---



Notation:

X\Y - Play fret X, slide down to fret Y
X/Y - Play fret X, slide up to fret Y
XhY - Play fret X and immediatly hammer-on to fret Y
XpY - Play fret X and immediatly pull-off to fret Y
(12)- Armonic
Tap to rate this tab
 
# A B C D E F G H I J K L M N O P Q R S T U V W X Y Z