Song name
# A B C D E F G H I J K L M N O P Q R S T U V W X Y Z

Stolen Babies - Lifeless tab

www.stolenbabiestheband.com

-------------------------------------------------------------------------------
			    LIFELESS - Stolen Babies
-------------------------------------------------------------------------------

Tabbed by: Tyler Greig

Email: gtheleadguitarist@hotmail.com

| /  slide up
| \  slide down
| h  hammer-on
| p  pull-off
| ~  let ring
| +  harmonic
| x  Mute note


Tuning: standard

Hey I don't know if these guys primarily use standard tuning, but thats how I'm
tabbing this song. I saw them last night with Lacuna Coil and they were great,
I picked up their album and they all signed it for me. Great band, hope you enjoy the tab.

There's only a few parts to this song so I'm gonna try and keep this as
straight-forward as I can.


The whole song is played clean.


Intro/verse (bass, but playable on guitar)
e|------------------------------|
B|------------------------------|
G|------------------------------|
D|------------------------------|
A|-7-8~--7-8-7----2-4~--2-4-2---|
E|-------------4--------------4-|repeat as necessary


At 1:04 (For clarity, im going to call this the chorus)
e|-----------------|
B|-----------------|
G|-9~----6~--------|
D|-9~----6~----6~--|
A|-7~----4~----6~--|
E|-------------4~--|x2

1:19 
e|------------------------------------------|
B|-----4-5~-----------------3~-4~-----------|
G|---4~-------------------3~----------------|
D|-6~-------------------6~------------------|
A|------------------------------------------|
E|------------------------------------------|x2

Verse (no guitar, but bass is the same as above)

1:50
e|------------------------------------------|
B|-----4-5~-----------------3~-4~-----------|
G|---4~-------------------3~----------------|
D|-6~-------------------6~------------------|
A|------------------------------------------|
E|------------------------------------------|

Chorus (1:59)
e|-----------------|
B|-----------------|
G|-9~----6~--------|
D|-9~----6~----6~--|
A|-7~----4~----6~--|
E|-------------4~--|x4

Bridge
e|-------------------------------|
B|-------------------------------|
G|-15--------------13------------|
D|--x--16 times-----x--16 times--|
A|-13--------------11------------|
E|-------------------------------|x2

2:46
e|------------------------------------------|
B|-----4-5~-----------------3~-4~-----------|
G|---4~-------------------3~----------------|
D|-6~-------------------6~------------------|
A|------------------------------------------|
E|------------------------------------------|x2

Verse again

3:17
e|------------------------------------------|
B|-----4-5~-----------------3~-4~-----------|
G|---4~-------------------3~----------------|
D|-6~-------------------6~------------------|
A|------------------------------------------|
E|------------------------------------------|

Chorus 
e|-----------------|
B|-----------------|
G|-9~----6~--------|
D|-9~----6~----6~--|
A|-7~----4~----6~--|
E|-------------4~--|x4

Bridge
e|-------------------------------|
B|-------------------------------|
G|-15--------------13------------|
D|--x--16 times-----x--16 times--|
A|-13--------------11------------|
E|-------------------------------|x2

Chorus 
e|-----------------|
B|-----------------|
G|-9~----6~--------|
D|-9~----6~----6~--|
A|-7~----4~----6~--|
E|-------------4~--|x2

4:30
e|------------------------------------------|
B|-----4-5~-----------------3~-4~-----------|
G|---4~-------------------3~----------------|
D|-6~-------------------6~------------------|
A|------------------------------------------|
E|------------------------------------------|x2

4:46
e|-----------|
B|-----4-5~--|
G|---4~------|
D|-6~--------|
A|-----------|
E|-----------|

And thats it for guitar in this song :)


===============================================================================
Tap to rate this tab
# A B C D E F G H I J K L M N O P Q R S T U V W X Y Z