Song name
# A B C D E F G H I J K L M N O P Q R S T U V W X Y Z

Stone Birds - You Can tab

-------------------------------------------------------------------------------
			      Stone Birds - "You Can!"
-------------------------------------------------------------------------------
Tabbed by: Stone Birds (Jake Hansen)
Email: Jakefolkrock@yahoo.com

Tuning: Standard
Key: D (not 100% sure)

Stream the song: http://www.folkalley.com/openmic/song.php?id=13086


Capo - 2nd fret
e|-----0-----0-----------0-|
B|-----------------2-------|
G|--------------------0----|
D|--------0----------------|
A|--2----------------------|
E|--------------3----------|
Chord - 3200030
TIP1: 
for the verse lines the first words and "you" hit at the first note of the tab
TIP2: 
try not to use a pick for this song or you'll get a different sound for the tab, 
and the strummed parts sound un-natural if strummed with a pick. 
I dedicate myself to not using a pick (normal in the genre of folk)
Chorus: 
strummed really fast up and down to the chord letting up on the b string on "can"

Do all the good you can
By all the means you can
In all the way you can
Of all the time you can
As long as ever you can

you can
you can
you can
you can
you can

Do all the good you can



| /  slide up
| \  slide down
| h  hammer-on
| p  pull-off
| ~  vibrato
| +  harmonic
| x  Mute note
===============================================================================
Tap to rate this tab
# A B C D E F G H I J K L M N O P Q R S T U V W X Y Z