Song name
# A B C D E F G H I J K L M N O P Q R S T U V W X Y Z

Stone Roses - Waterfall tab

Tuning: Standard (EADGBe)
Capo on 4th

e|------------------|
B|---3--------------|
G|-----2---p0-0---0-|
D|-0-----0------4---|
A|------------------|
E|----------------|x8

e|---------------------------------------------0--0---|
B|---3-----3-----3------3-----3-----3-----3----3----3-|
G|-----0-----0-----0------0-----0-----0-----0--0------|
D|-5-----4-----2-----2------5-----4-----2------2------|
A|---------------------------------------------0------|
E|---------------------------------------------x------|

e|------------------|
B|---3--------------|
G|-----2---p0-0---0-|
D|-0-----0------4---|
A|------------------|
E|----------------|x6

e|---------------------------------------------0--0---|
B|---3-----3-----3------3-----3-----3-----3----3----3-|
G|-----0-----0-----0------0-----0-----0-----0--0------|
D|-5-----4-----2-----2------5-----4-----2------2------|
A|---------------------------------------------0------|
E|---------------------------------------------x------|

e|------------------|
B|---3--------------|
G|-----2---p0-0---0-|
D|-0-----0------4---|
A|------------------|
E|----------------|x6

e|---------------------------------------------0--0---|
B|---3-----3-----3------3-----3-----3-----3----3----3-|
G|-----0-----0-----0------0-----0-----0-----0--0------|
D|-5-----4-----2-----2------5-----4-----2------2------|
A|---------------------------------------------0------|
E|---------------------------------------------x------|  

e|----------------------------------------------------|
B|---3----------------3----------------3-----3--------|
G|-----2---p0-0---0-----2---p0-0---0-----0-----0------|
D|-0-----0------4---0-----0------4---5-----4-----2----|
A|----------------------------------------------------|
E|----------------------------------------------------|

e|----------------------------------------------------0---|
B|---3----------------3----------------3-----3--------3---|
G|-----2---p0-0---0-----2---p0-0---0-----0-----0------0---|
D|-0-----0------4---0-----0------4---5-----4-----2----2---|
A|----------------------------------------------------0---|
E|----------------------------------------------------x---|

e|------------------|
B|---3--------------|
G|-----2---p0-0---0-|
D|-0-----0------4---|
A|------------------|
E|----------------|x6

e|---------------------------------------------0--0---|
B|---3-----3-----3------3-----3-----3-----3----3----3-|
G|-----0-----0-----0------0-----0-----0-----0--0------|
D|-5-----4-----2-----2------5-----4-----2------2------|
A|---------------------------------------------0------|
E|---------------------------------------------x------|

e|------------------|
B|---3--------------|
G|-----2---p0-0---0-|
D|-0-----0------4---|
A|------------------|
E|----------------|x6

e|-----------------------------------------------------|
B|---3-----3-----3------3-----3-----3-----3-----3-5-3--|
G|-----0-----0-----0------0-----0-----0-----0----------|
D|-5-----4-----2-----2------5-----4-----2-----2--------|
A|-----------------------------------------------------|
E|-----------------------------------------------------|

e|--------------------------------------------------|
B|---3----------------3----------------3-----3------|
G|-----2---p0-0---0-----2---p0-0---0-----0-----0----|
D|-0-----0------4---0-----0------4---5-----4-----2--|
A|--------------------------------------------------|
E|--------------------------------------------------|

e|----------------------------------------------------0---|
B|---3----------------3----------------3-----3--------3---|
G|-----2---p0-0---0-----2---p0-0---0-----0-----0------0---|
D|-0-----0------4---0-----0------4---5-----4-----2----2---|
A|----------------------------------------------------0---|
E|----------------------------------------------------x---|

e|------------------|
B|---3--------------|
G|-----2---p0-0---0-|
D|-0-----0------4---|
A|------------------|
E|----------------|x2  

e|------------------------------------------|
B|------------------------------------------|
G|-----0---2--0------0------0---2--0----0---|
D|---2---2-------0h2------2---0-------4---4-|
A|------------------------------------------|
E|-0--------------------3-------------------|

e|--------------------------------------0-----|
B|--------------------------------------3-----|
G|-----0---2--0------0----0-------------2-----|
D|---2---2-------0h2---------4-2--0-----0-----|
A|-----------------------------------4--0-----|
E|-0--------------------3---------------x-----|

e|--------0------------0-------------0----|
B|-5---3--3------------3------5---3--3----|
G|--------2------------2-------------2----|
D|--------0------------0-------------0----|
A|--------0------------0-------------0----|
E|----------------------------------------|

e|-----------------------0---------------------0---|
B|-----------------------3---------------------3---|
G|-2--0------------------2---------------------2---|
D|----0---2b--0-------0--0------2b--0-------0--0---|
A|----------------2h3----0--------------2h3----0---|
E|-------------------------------------------------|

e|----------------------------------------------------------|
B|----------------------------------------------------------|
G|---------------------------2---2--2-2----------2-2---2-2--|
D|-2--4---5-4--2-0--------0--0---0--0-0------0---0-0---0-0--|
A|--------------------2h3----0---0--0-0--2h3-----0-0---0-0--|
E|----------------------------------------------------------|

e|----------------------------0---------------------0---|
B|----------------------------3---------------------3---|
G|--------2---2--2-2----------2---------------------2---|
D|-----0--0---0--0-0-------0--0------2b--0--------0-0---|
A|-2h3----0---0--0-0---2h3----0---------------2h3---0---|
E|------------------------------------------------------|

e|-----------------------------------------------------------|
B|-----------------------------------------------------------|
G|----------------------------2---2--2-2-----------2-2--2-2--|
D|-2--4---5-4--2-0---------0--0---0--0-0-------0---0-0--0-0--|
A|---------------------2h3----0---0--0-0---2h3-----0-0--0-0--|
E|-----------------------------------------------------------|

e|----------------------------0----------|
B|----------------------------3----------|
G|--------2---2--2-2----------2----------|
D|-----0--0---0--0-0-------0--0----------|
A|-2h3----0---0--0-0---2h3----0----------|
E|---------------------------------------|

e|-0-------------------0----------------|
B|-3-----5---3--3------3-----5---3--3---|
G|-2------------2------2------------2---|
D|-0------------0------0------------0---|
A|-0------------0------0------------0---|
E|--------------------------------------|

e|----------------------------------------------------|
B|----3--------------------------3--------------------|
G|-------2----0--0----0--2----------2----0--0------0--|
D|-0--------0-------4---------0--------0-------0h4----|
A|----------------------------------------------------|
E|--------------------------------------------------|x6

e|-------|
B|--3----|
G|--2----|
D|--0----|
A|--0----|
E|-------|
Tap to rate this tab
# A B C D E F G H I J K L M N O P Q R S T U V W X Y Z