Song name
# A B C D E F G H I J K L M N O P Q R S T U V W X Y Z

Stone Sour - Bother tab

(Easy Song to play in standard tunning also)
Tuning high to low: Eb Bb Gb Db Ab Eb
    E5m
 7 8 9 9 7 X  
 
(INTRO) & Breaks when he's not singing    
    D5  E5m
Eb[---------------------------------]   
Bb[-7-h-8-7---7-p-8-p-7-------------]   
Gb[7-h-9-7--------------9-7--------]
Db[7-h-9-7--------------9-7--------]
Ab[7-------------------------------]
Eb[---------------------------------]

    Em5 D5       D5
Eb[--------------5-5-5-5-5-5---------]   
Bb[---8-7--8-7---7-7-7-7-7-7---------]   
Gb[--9-7--9-7---7-7-7-7-7-7---------]
Db[--9-7--9-7---7-7-7-7-7-7---------]
Ab[-------------5-5-5-5-5-5---------]
Eb[----------------------------------]

Verse 1
E5m     D5      E5m      D5
Wish I was too dead to cry
D5                E5m      
Self affliction I face
E5m       D5       E5m    D5
Stones to throw at my creator
D5            G5      D5
Masochists to which I cater

Chorus
E5m               D5
You dont need to bother
E5m             B5
I dont need to be
E5m                D5 
Ill keep slipping farther
C5               D5                   E5m
Once I hold on I wont let go till it bleeds

A background run after the course Sounds more from the Bass
(E5m D5 B A)

Verse 2
Wish I was too dead to care
If indeed I can at all
Never had the voice to protest
So you fed me 
I wish I had a reason 
My flaws are open season
For this I gave up trying
One good turn deserves my time

Chorus

Bridge


Solo
eb--------------------------------------7-------------------
Bb--6---10p8p7-8--5h7-7h8-7---5--2h3h5--8-------------------
Gb--9-----------------------------------9------7------------
Db--9-----------------------------------9--7h9---h9-9---7h9-
Ab--7-----------------------------------7-------------------
Eb---------------------------------------------------------


eb---------7^p5---3--5p3------5p3--------------------------
Bb-----------------------h5-------h5--5---7h8--------------
Gb--7h9-----------------------------------7h9--------------
Db----------------------------------------7h9--------------
Ab----------------------------------------7----------------
Eb---------------------------------------------------------

First time doing a tab, but I think I have gotten most of it.
hope it helps.	
Tap to rate this tab
# A B C D E F G H I J K L M N O P Q R S T U V W X Y Z