Song name
# A B C D E F G H I J K L M N O P Q R S T U V W X Y Z

Stone Sour - Through The Glass tab

Artist:	Stone Sour
Song:	Through The Glass
Tab by:	Imnotbad
Tuning:	Eb,Ab,Db,Gb,Bb,Eb (half step down)

After 40 comments I decided to update my tab. So, just to let you know that this tab was
to show the song as an easy one. But I finaly bought the new CD of Stone Sour (not bad,
the first one is better (Corey Talor rocks)) and will update this tab putting the lead 
of the bridge and corected little mistakes. So there it goes...

  Repeat this part on the first chorus
e|----------------------------------------------|
B|-----0-------0--------------------------------|
G|---0-------0-----------0-------------0--------|
D|---------------------9----9--------9----9-----|
A|-3-------5---------7--------7---7---------7---|
E|-----------------0-------------0--------------|

 And last time just it go like this
e|-----|
B|-0---|
G|-0---|
D|-9---|
A|-7---|
E|-----|

  Repeat this part on the first verse, the second chorus and the second
  verse
e|--------------------------------------------------|
B|----0----0------0----0------0----0------0---00----|
G|----0----0------0----0------0----0------0---00----|
D|-5--5-55-5---7--7-77-7---9--9-99-9---9--9-9/99----|
A|-3--3-33-3---5--5-55-5---7--7-77-7---7--7-7/77----|
E|--------------------------------------------------|

  Reapeat this part on the third chorus
e|-----------------------------------------------------------------|
B|-----------------------------------------------------------------|
G|-5--55--5-5-55---7--77--7-7-77---9--99--9-9-99---9--99--9-9-99---|
D|-5--55--5-5-55---7--77--7-7-77---9--99--9-9-99---9--99--9-9-99---|
A|-3--33--3-3-33---5--55--5-5-55---7--77--7-7-77---7--77--7-7-77---|
E|-----------------------------------------------------------------|

  Repeat this part on the first bridge
e|-------xxx--xxxxxx-------xxx--xxxxxx-------------|
B|-------xxx--xxxxxx-------xxx--xxxxxx-------------|
G|-5--55-xxx--xxxxxx-7--77-xxx--xxxxxx-9--9--99999-|
D|-5--55-xxx--xxxxxx-7--77-xxx--xxxxxx-9--9--99999-|
A|-3--33-xxx--xxxxxx-5--55-xxx--xxxxxx-7--7--77777-|
E|-------xxx--xxxxxx-------xxx--xxxxxx-------------|

  And then...
e|---------------------------------0--00--0-0-00---0--00--0-0-00---|
B|---------------------------------0--00--0-0-00---0--00--0-0-00---|
G|-5--55--5-5-55---7--77--7-7-77---0--00--0-0-00---0--00--0-0-00---|
D|-5--55--5-5-55---7--77--7-7-77---2--22--2-2-22---2--22--2-2-22---|
A|-3--33--3-3-33---5--55--5-5-55---2--22--2-2-22---2--22--2-2-22---|
E|---------------------------------0--00--0-0-00---0--00--0-0-00---|

Here comes the lead! (the notes are 10,12,11)
e|-------------------------------|
B|-------------------------------|
G|-121212--111111-999-777--------|
D|-x-x-x---x-x-x--xxx-xxx--------|
A|-101010--9-9-9--777-555--------|
E|-------------------------------|


  Reapeat this part on the fourth chorus
e|------------------------------------------------------------|
B|------------------------------------------------------------|
G|-5--------------7--------------------0-------------0--------|
D|-5--------------7------------------2----2--------2----2-----|
A|-3--------------5----------------2--------2---2---------2---|
E|-------------------------------0-------------0--------------|

e|-----------------------------|
B|-----0-------0---------------|
G|---0-------0-----------------|
D|-----------------------------|
A|-3-------5-------------------|
E|-----------------0-----------|

  And turn on palm mute at the end of it (0,2,2 can be 7,9,9)
e|-----------------------------------------------------------------|
B|-----------------------------------------------------------------|
G|-5-5-5-5-5-5-5-5-7-7-7-7-7-7-7-7---------------------------------|
D|-5-5-5-5-5-5-5-5-7-7-7-7-7-7-7-7-2-2-2-2-2-2-2-2-2-2-2-2-2-2-2-2-|
A|-3-3-3-3-3-3-3-3-5-5-5-5-5-5-5-5-2-2-2-2-2-2-2-2-2-2-2-2-2-2-2-2-|
E|---------------------------------0-0-0-0-0-0-0-0-0-0-0-0-0-0-0-0-|


  And finaly, reapeat this part on the second bridge (x2)
e|---------------------------------0--00--0-0-00---0--00--0-0-00-----|
B|---------------------------------0--00--0-0-00---0--00--0-0-00-----|
G|-5--55--5-5-55---7--77--7-7-77---0--00--0-0-00---0--00--0-0-00-----|
D|-5--55--5-5-55---7--77--7-7-77---2--22--2-2-22---2--22--2-2-22-----|
A|-3--33--3-3-33---5--55--5-5-55---2--22--2-2-22---2--22--2-2-22-----|
E|---------------------------------0--00--0-0-00---0--00--0-0-00-----|

Here comes the lead again! (the notes are 10,12,11)
e|-------------------------------|
B|-------------------------------|
G|-121212--111111-999-777--------|
D|-x-x-x---x-x-x--xxx-xxx--------|
A|-101010--9-9-9--777-555--------|
E|-------------------------------|

 The finish with
e|-0------|
B|-0------|
G|-0------|
D|-2------|
A|-2------|
E|-0------|


Order:
Chorus #1
Verse  #1
Chorus #2
Verse  #2
Chorus #3
Bridge #1
Chorus #4
Bridge #2

Maybe it's not perfect, but it's realy good. What a fu****** good song of Stone Sour.
for your comments and for your votes!!!
Tap to rate this tab
# A B C D E F G H I J K L M N O P Q R S T U V W X Y Z